Posts

10 EASY ACOUSTIC GUITAR TECHNIQUES LESSON IN HINDI FOR BEGINNERS AND INTERMEDIATES by FUXiNO

Image
10 EASY ACOUSTIC GUITAR TECHNIQUES LESSON IN HINDI

Give Your 10 Minutes to Learn 10 Techniques in One Video.
Watch This Video if you want to improve your guitar playing it will make you more professional if you keep using theses basic techniques in your playing.
Learn 10 most used easy and basic acoustic guitar and electric guitar techniques and effects lesson video in hindi for beginners and intermediates by fuxino aka fuzail xiddiqui. In this video I have explained ten acoustic guitar techniques e.g slide, bend, hammer on, pull off, vibrato, release, alternate picking, mute and so on with few tips and tricks to improve your guitar lead, tabs playing. you can make any easy guitar songs more beautiful by using these simple techniques and effects even beginners can do with these easy guitar lessons.

Thank You.

#FUXiNO

Papa Kehte Hain Bada Naam Karega Guitar Tabs (Notes) with Chords & Strumming Pattern by FUXiNO | FX-MUSIC

Image
Lead Free Backing Track for Practice 
Backing (with Guided Lead in slow volume) Track For Beginners To Follow Timing of Notes (Headphones Recommended)

IT TAKES TOO MUCH TIME AND EFFORTS TO MAKE VIDEOS,NOTES,BACKING TRACK FOR YOU GUYS AND I DONT EARN TOO MUCH DUE TO COPYRIGHT ISSUE SO IF YOU WANT TO SUPPORT MY WORK YOU CAN BY DONATING ANYTHING ON PAYTM (Simply Click On This PAYTM Button). Thank You.
Donate with




CHORDS - C,Am,F,G

STRUMMING - DD-UU-DU


TABS

E|-----------------------------------------
B|--\5--5------------------------6--5-----
G|--------7--5--7--------5--5--------7--
D|------------------5--7------------------
A|-----------------------------------------
E|-----------------------------------------

E|-----------------------------------------
B|--\5--5--------------------------6--5hp6-----
G|---------7-7--5--7--------5--5--------------7--
D|----------------------5--7------------------
A|-----------------------------------------
E|----------------------------…

Ranu Mondal and Himesh Reshammiya Song Teri Meri Kahani LYRICS Chords Guitar Tabs and Strumming Pattern by FUXiNO | FX-MUSIC

Image
Ranu Mondal viral song teri meri kahani for singer and actor himesh reshammiya ’s upcoming movie Happy Hardy and Heer.The full song is not released yet i will try to upload the full song Tabs and chords as soon as the full song releases.

CHORDS - Bm,A,G
STRUMMING - D-D  (USED IN MY VIDEO)

(Female - Ranu Mondal)
(Bm>A>G)
Aa…..aaaaa…aaaa

(Bm)Teri hi meri hi  (A)Teri meri (Bm)Teri meri hi kahani (G)  (Music)
(Bm)Teri hi meri hi  (A)Teri meri (Bm)Teri meri hi kahani (G)  (Music)
(Male - Himesh Reshammiya)
(Bm)Teri hi meri hi  (A)Teri meri (G)Teri meri hi kahani
(Bm)Teri hi meri hi  (A)Teri meri (G)Teri meri hi kahani

TABS (Watch My Video For Better Understanding)
RANU MONDAL (FEMALE PART) E|-----------------------
B|--14\15-14-12h14-12h14-
G|-----------------------
D|-----------------------
A|-----------------------
E|-----------------------


E|-----------------
B|--12-10h12-10h12-
G|-----------------
D|-----------------
A|-----------------
E|-----------------

E|-----------------------
B|--14\15-14-…

Senorita Guitar Tab Sheet with Chords and Bass Guitar Notes by FUXiNO | Shawn Mendes, Camila Cabello | | FX MUSIC

Image
CHORD USED
Am,C,F,Em,G

PROGRESSIONS
Am>C>F>Em>G
Am>C>G

With CAPO on 5th - Em,G,C,Bm,D

PROGRESSIONS with CAPO
Em>G>C>Bm>D
Em>G>D


IT TAKES ALOT TIME TO MAKE VIDEOS AND NOTES, SO IF YOU WANT TO SUPPORT MY WORK, YOU CAN BY DONATE ANYTHING TO ENCOURAGE ME Donate with


BASS LINE (Muted Bass Guitar Notes on Standard Acoustic Guitar)
(Am)
E|-----------------------------------
B|-----------------------------------
G|-----------------------------------
D|------------------5--7--5---------
A|-----7--7-----7-----------7--5--
E|--5--------5----------------------

(C)
E|-----------------------------------
B|----------------------------------
G|-----------------------2-----------
D|-----5--5-----5--5-----5--2--0--
A|--3--------3----------------------
E|----------------------------------

(F)
E|-----------------------------------
B|-----------------------------------
G|-----------------------------------
D|-----------------------0-----------
A|-----3-…

TERA BAN JAUNGA Guitar Tabs Lesson w/ Cover & Chords by FUXiNO | Kabir Singh | FX-MUSIC

Image
CHORD USED -  B,E,G#m
TABS
E|--------------------------------
B|--------7--4--------------7--4--
G|--4--6--------6--4--4--6--------
D|--------------------------------
A|--------------------------------
E|--------------------------------


E|-----------------------------
B|--------7--4--9--7---7\9--7--
G|--4--6-----------------------
D|-----------------------------
A|-----------------------------
E|-----------------------------

E|-----------------------------
B|-----------7--4---4hp5--------
G|--4--6--6--------------6--4--
D|-----------------------------
A|-----------------------------
E|-----------------------------

E|-----------------
B|-------------7--4--
G|--4--6--6--------
D|-----------------
A|-----------------
E|-----------------

E|-----------------------------
B|--------7--4--9--7---7\9--7--
G|--4--6-----------------------
D|-----------------------------
A|-----------------------------
E|-----------------------------


E|--7--6--9--7--7--6--6--------------------
B|---------------------------9--9--7--7\9--9--
G|---…

O Mehndi Pyar Wali Hathon Pe Lagaogi Guitar Tabs & Chords | O Dil Tod Ke Hasti Ho Mera | TIK TOK VIRAL SONG

Image
CHORDS > A#m,G#,F#

STRUMMING >D-UU


TABS


INTRO
E|--------------------
B|------------13hp14-------
G|--15-15-------------15-13-
D|--------------------
A|--------------------
E|--------------------


E|--------------------
B|------------13hp14-------
G|--15-15-------------15-13-
D|--------------------
A|--------------------
E|--------------------



E|--------------------
B|------------13hp14-------
G|--15-15-------------15-13-
D|--------------------
A|--------------------
E|--------------------


(EASY VERSION OF INTRO)

E|-----------8hp9--------
B|--11-11----------11-9--
G|--------------------
D|--------------------
A|--------------------
E|--------------------


SONG

E|--------------------------------------------
B|--------4---4--6--6--6---4--6-----4--4--6--6--
G|--\6--6----------------------------6--------------
D|--------------------------------------------
A|--------------------------------------------
E|--------------------------------------------

E|--------------------
B|--6--4----------…

Tujhe Kitna Chahne Lage Hum Guitar Tabs Lesson w/ Cover & Chords | KABIR SINGH | FUXiNO

Image
CHORD USED - B,G#m,E,F#,C#m,Dm

TABS

SYMBOLS (/) Slide Down (\) Slide Up   (h) Hammer On   (p) Pull Off   (x) Muted

E|-----------------------------------
B|--2\5--4-----------------------------
G|------------6--4--6\8-----------
D|-----------------------------------
A|-----------------------------------
E|-----------------------------------


E|-----------------------------------
B|----------------------------------
G|---3--4--6--4--4---------------
D|-----------------------------------
A|-----------------------------------
E|-----------------------------------


E|--------------------------------
B|--\7--7--7--7/-------------------
G|-----------------\4--------------------
D|--------------------------------
A|--------------------------------
E|--------------------------------

E|--------------------------------
B|--------4hp5--------
G|-4--6---------6--6--
D|--------------------------------
A|--------------------------------
E|--------------------------------

IT TAKES A-LOT OF EFFORT TO MAKE…