Posts

Most Used Song (Ummon Hiyonat) in Tik Tok Videos with Shayri - Guitar Tabs by Fuxino | Fxmusic

Image
Please Watch This Video For Better Understanding.

E|-----------------
B|--12-12-11hp12----
G|----------------------13-
D|-----------------
A|-----------------
E|-----------------

E|-----------------
B|--12-12-11hp12----
G|----------------------13-
D|-----------------
A|-----------------
E|-----------------

E|--------------
B|------11-------
G|--13----13-11-
D|--------------
A|--------------
E|--------------

E|--------------------------
B|---------9--11-11--9hp11----
G|--8--11-----------------------11-
D|--------------------------
A|--------------------------
E|--------------------------

E|--------------
B|--11--9hp11----
G|------------------11-
D|--------------
A|--------------
E|--------------

E|--------------
B|--9--9--------
G|----------11-9--
D|--------------
A|--------------
E|--------------

Repeat

E|-----------------
B|--12-12-11hp12----
G|----------------------13-
D|-----------------
A|-----------------
E|-----------------

E|-----------------
B|--12-12-11hp12----
G|------------…

Tum Hi Aana Guitar Tabs with intro, Chords and Backing Track by Fuxino | Jubin Nautiyal | Marjaavaan | FxMusic

Image
Tum Hi Aana Guitar Tabs Lesson with Cover

Tum Hi Aana BACKING TRACK (for practice)

Watch my video for better understanding.


Chords - Em,C,D,Am,Bm

INTRO

E|-----7--7--5--------------
B|--5-----------8--7--8--5--
G|--------------------------
D|--------------------------
A|--------------------------
E|--------------------------

E|-----7--7--5--------------
B|--5-----------8--7--8--5--
G|--------------------------
D|--------------------------
A|--------------------------
E|--------------------------

E|-5----5--5-----------------
B|-------------8--7--5--7-----
G|---7-----------------------7--
D|--------------------------
A|--------------------------
E|--------------------------


E|--------------------
B|-------------7--8--5--
G|--7--5--7-----------
D|--------------------
A|--------------------
E|--------------------


TERE JAANE KA GUM

E|--12-10----10-------
B|----------13----13-12-
G|--------------------
D|--------------------
A|--------------------
E|--------------------


E|--12-10----10-------

Top 10 English Songs Popular in INDIA & Worldwide - Mashup - Guitar Tabs by Fuxino | FX-MUSIC

Image
WATCH THIS VIDEO FOR BETTER UNDERSTANDING
CHORD USED - Em,C,G,D,Am,Bm,B and B7

Mashup Key -  Em

SUPPORT MY WORK BY DONATING ANYTHING,SIMPLY CLICK ON THIS BLUE PAYTM BUTTON Donate with



Tip Learn one by one then try to play all songs as a Mashup.


FADED - ALAN WALKER
E|-------------- B|--8--8--8--12- G|-------------- D|-------------- A|-------------- E|--------------
E|-------------- B|--17-17-17-15- G|-------------- D|-------------- A|-------------- E|--------------
E|-------------- B|--12-12-12-12- G|-------------- D|-------------- A|-------------- E|--------------
E|-------------- B|--7--7--7--5-- G|-------------- D|-------------- A|-------------- E|--------------



TAKI TAKI - DJ SNAKE
E|-------------5--7-----5--5--7-------- B|--5--5--8--------8--------------5----- G|---------------------------------------7-- D|----------------------------------- A|----------------------------------- E|-----------------------------------

E|-------------5--7-----5--5--7-------- B|-…

2 Open Chords 5 Easy Bollywood Hindi Songs Mashup to play on Acoustic Guitar Lesson by Fuxino | FX MUSIC

Image
CHORD USED - E , Asus2     (Capo on 2nd Fret)
(Tip - Transpose these chords according to your vocal range if required.)
MAINSTRUMMING - DD-UDU-DD-(DU)*Last (DU)* stroke is filler
STRUMMING - DDDDDDDD......
(Watch My Video For Better Understanding)
MASHUP LYRICS
1-PEHLI MOHABBAT
Na re, na re na re na re na na na
Mera din bhi tu, meri shaame tu Mere raat ke sapno mein tu Meri aahatein tera naam le Yeh baat tu maan le
Mera din bhi tu, meri shaame tu Mere raat ke sapno mein tu Meri aahatein tera naam le Yeh baat tu maan le
Sau saal ka mera ik din ho Jisme teri tasveere na ho 
Berut si hai meri yeh zindagi Jisme teri khushboo na ho
Meri pehli mohabbat, pehli mohabbat Pehli mohabbat hai woh Meri pehli mohabbat, pehli mohabbat Pehli mohabbat hai woh…
2- ILLAHI
Shaame Malang Si
Raate Surang Si
Baaghi Udaan Pe Hi Na Jaane Kyun
Ilahi Mera Jee Aaye Aaye
Ilahi Mera Jee Aaye Aaye Da Da Dan Dan Dung Dung Dang...
3-RAABTA Kehte Hain Khuda Ne Iss Jahan Mein Sabhi Ke Liye Kisi Na Kisi Ko Hai Banaya Har Kisi Ke Liye Tera Milna Hai…

How to connect SAMSON USB CONDENSOR Mic with Mobile and Record Good Quality Audio on Your Android Mobile Phone - Hindi

Image
USB MIC in ANDROID MOBILE PHONE

(Watch This Video For Better Understanding)
Hi, So many of you were asking me about recording your audio, guitar vocals on mobile through Usb Condenser Mic. so I have decided to share this with you guys and it works properly.

Equipment Needed
1 - USB Condensor Mic
2 - OTG Cable
3 - Any Android Mobile Phone

How to connect?
Simply Connect your Mic USB port into OTG cable and then Connect it to your mobile device. you will see a glowing light on mobile.


Thank You

PACHTAOGE x BEKHAYALI MASHUP GUITAR CHORDS with LYRICS by FUXiNO | FXMUSIC

Image
CHORDS - Am,F,G,E,C,Em      (Capo on 3rd Fret)
(Note - Transpose these chords according to your vocal Range,if required)

1 - STRUMMING - D-DUDU  (Main Strumming)

2- STRUMMING - DDD... 

Mixed Strumming 1&2.
Mixed STRUMMING  - DDD--(dudu)*    Last (dudu) is used as filler. (Optional)

Note - Dont get confused in strumming pattern, you can simply start with Down stroke or (simple fingerplucking) and then use that Main Strumming.



(Am>G>F>G) Hai ye tadpan, hai ye uljhan Kaise jee loon bina tere
(Am>G>F>G)
Meri ab sab se hai annban Bante kyun ye Khuda mere 

(Am>G)
hmm...mmmmmmmmmmmm
(Am>F>G) hmm...mmmmmmmmmmmm

(Am>E) Sunniya sunniya galliyan de vich rol na deyin (Am>E)
Boohe kise hor li tu khol na deyin


(Am>E>F>Am) Ho shayar Jaani nu je rulaaoge Bada pachtaoge, bada pachtaoge
(Am>E>F>Am) O mujhe chor kar Jo Tum Jaoge Bada pachtaoge, bada pachtaoge
(Am>C)
Raatein dengi bata
(E) Mujhse jo nazrein churane lage ho
(Am>C) Bhoolun kaise tujhe
(E) Lagta hai koi aur gali …

How to Easily Find any Notes Name on Guitar Fretboard - Memorise All Notes in One Trick (in Hindi) by FUXiNO

Image
WATCH THIS VIDEO FOR COMPLETE UNDERSTANDING
FREE DIAGRAM FOR YOUR PRACTICE
IT TAKES ALOT TIME AND EFFORTS TO MAKE THESE CONTENTS, SO IF YOU WANT TO SUPPORT MY WORK YOU CAN BY YOUR DONATION. YOUR SMALL CONTRIBUTION CAN MAKE A BIG DIFFERENCE. CLICK THIS DONATE with PAYTM BUTTON Donate with


About Sharp and Flats - in modern music you can use sharp or flat according to your comfort. it is just a communicational thing. There will be no location change of that particular note, either you use sharp or flat in your communications.Few use sharp or few use flat to communicate or represent their music, and I always use Sharp in my communications but you should learn both to communicate easily with other musicians.

Memorise all guitar notes on fretboard with this easy diagram trick. In this video I have explained an easy trick to remember all the notes name on guitar fretboard with a basic theory and diagram trick for beginners in Hindi. by FUXiNO aka Fuzail xiddiqui.

There are …