Posts

Genda Phool (Boro Loker Beti Lo) Guitar Tabs & Chords (Main Bengali Line & Melody) by Fuxino | Fxmusic | Badshah ft Jacqueline Fernandez

Image
Genda Phool (Boro Loker Beti Lo) Guitar Tabs & Chords with Cover (Main Bengali Line & Melody) by Fuxino
CHORDS

Only Two Chord Used - D#m & C#


Tabs
(Note - I have tried to write easy notes for you, for better understanding you must watch my video)

(Boro Loker Beti Lo)
E|--------------------------------
B|--4--6---6--6--4--6--4-----
G|-------------------------------6--
D|-------------------------------
A|-------------------------------
E|-------------------------------

E|-------------------------------
B|--4--6--6--6--4--6--4------
G|------------------------------6---
D|-------------------------------
A|------------------------------
E|-------------------------------


E|--------------------------------------------
B|-----------------4--4--6--7--6--4--4--4--4---
G|--3--3--6--6--------------------------------
D|--------------------------------------------
A|--------------------------------------------
E|--------------------------------------------


(Repeat)

E|-----------------------…

Single String Guitar Songs Mashup - 10 Arijit Singh Songs | Easy One String Bollywood Hindi Songs Guitar Tabs

Image
Single String Guitar Songs Mashup - 10 Arijit Singh Songs | Easy One String Bollywood Hindi Songs Tabs

MASHUP COVER


PiANO COVER


LESSON VIDEO



BACKING TRACK 
(Available on Google Play, i-Tunes or Spotify)
(Click This icon)



TABS
KABHI JO BADAL single string guitar tabs
E|--5--7--8--7--8--10-7-- B|----------------------- G|----------------------- D|----------------------- A|----------------------- E|-----------------------
E|--5--7--8--7--8--10-7-- B|----------------------- G|----------------------- D|----------------------- A|----------------------- E|-----------------------

E|--5--7--8--7--8--10-7-- B|----------------------- G|----------------------- D|----------------------- A|----------------------- E|-----------------------

E|--3--5--7--5--3--1--0-- B|----------------------- G|----------------------- D|----------------------- A|----------------------- E|-----------------------

PHIR MOHABBAT single string guitar tabs
E|--0--5--5--5--3--3--5--5--7--7--7--8--8--8\10-10-7--7/5-- B|----------------…

MALANG Guitar Chords and TABs Lesson with Cover by FUXiNO | FX-MUSIC | Malang Title Track by Aditya Roy Kapoor & Disha Patani

Image
MALANG TITLE TRACK GUITAR CHORDS BY FUXINO WITH INSTRUMENTAL COVER 

CHORD USED - Em,C,G,D,Am (Capo on 3rd fret)


E|--10-10-10-10-10h11-10-10-
B|----------------------------------
G|----------------------------------
D|---------------------------------
A|---------------------------------
E|---------------------------------


E|--10--------------------------------
B|-----13-11-13-10-11-----10----
G|----------------------------12----
D|--------------------------
A|--------------------------
E|--------------------------


E|--10-10-10-10-10h11-10-10-
B|---------------------------------
G|---------------------------------
D|---------------------------------
A|---------------------------------
E|---------------------------------


E|------10---------------------------------
B|--11----13-11-11\13-10--11-10------
G|---------------------------------------------12---
D|------------------------------------------
A|------------------------------------------
E|------------------------------------------


E|…

GUITAR MINI COURSE BOOK FOR ABSOLUTE BEGINNERS by FUXiNO | FX-MUSIC STORE

Image
GUITAR MINI COURSE FRO ABSOLUTE BEGINNERS
CLICK HERE

Guitar is very popular and most loved instrument of all time, everyone wants to learn guitar but only a few of them are able to do it, because people do not know how to solve the difficulties in the initial stage of learning, so they fed up and stop learning. But if you have a proper guidance you can easily learn the guitar. Many of you start learning guitar from YouTube videos but it takes a lot of time to find a good tutorials at one place. So, you should take this mini course and It will definitely give you all basics of guitar in one book which will save your time and you will feel confident.
About This Mini Guitar Book This book is made for those who has just started playing guitar, and I have shared all the basics in this one mini guitar course book with few tips for absolute beginners. It will save your time and you will feel confident after reading this book.
NOTE - I have covered only basic concepts in this book, it is not …

Yaad Piya Ki Aane Lagi Guitar Tabs and Chords with intro and all Solo By Fuxino | Fxmusic | Faisu | Neha Kakkar | Divya Kumar

Image
Yaad Piya Ki Aane Lagi Bheegi Bheegi Raaton Mein Full Song Guitar Tabs,Chords,intro and all Solo Notes by Fuxino
CHORDS - Em,D,C,Bm  (Capo on 1st Fret)

TABS

INTRO
E|--8-----------------------------
B|-----9---9\11----8---8h9--8-----
G|----------------10--------------8--
D|--------------------------------
A|--------------------------------
E|--------------------------------


E|--8-----------------------------
B|-----9---9\11----8---8h9--8-----
G|----------------10--------------8--
D|--------------------------------
A|--------------------------------
E|--------------------------------

WATCH THIS TUTORIAL VIDEO IF YOU ARE GETTING CONFUSED



Aasmaa me ,,,,,,
E|--8--------------------------------------
B|-----8--8--8--------------------8--8--8-----
G|---------------10-10-8------8-----------10-
D|-------------------------10----------------
A|-----------------------------------------
E|-----------------------------------------

E|-----8--8-----------------------------------
B|-----------8--8-----…

Kaise Hua Guitar Tabs, Chords with Electric Guitar SOLO by Fuxino | FX-MUSIC

Image
CHORDS - Bm,F#m,G,A,D,Em


E|-----------------------------
B|--3-----3-----3-----3-----3--
G|-----4-----4-----4-----4-----
D|-----------------------------
A|-----------------------------
E|-----------------------------

E|-----------------------------
B|--3-----3-----3-----3-----3--
G|-----4-----4-----4-----4-----
D|-----------------------------
A|-----------------------------
E|-----------------------------


E|-----------
B|--2--------
G|-----4--2--
D|-----------
A|-----------
E|-----------


E|-----------------------------
B|--3-----3-----3-----3-----3--
G|-----4-----4-----4-----4-----
D|-----------------------------
A|-----------------------------
E|-----------------------------

E|-----------------------------
B|--3-----3-----3-----3-----3--
G|-----4-----4-----4-----4-----
D|-----------------------------
A|-----------------------------
E|-----------------------------


E|-----------
B|--2--------
G|-----4--2--
D|-----------
A|-----------
E|-----------


E|--------------
B|-----2--3-----
G|--…

Kabir Singh Theme Music (Full Song BGM) - Electric Guitar Cover By Fuxino | FX-Music

Image
Kabir singh theme music full song mass bgm (background music of movie and trailer) - electric guitar cover by fuxino. In this video i have played kabir singh theme song or Arjun reddy theme song nusic on electric guitar to make its sound like original and many of you were requesting me for this kabir singh theme music cover video and few were asking to play it on acoustic guitar with tutorial, so if i got good response and your huge comments i will try to arrange this kabir singh theme music on acoustic guitar.
Leave your Comments below and give me a Like and please Share this video.
FUXiNO