Posts

Single String Guitar Songs Mashup - 10 Arijit Singh Songs | Easy One String Bollywood Hindi Songs Guitar Tabs

Image
Single String Guitar Songs Mashup - 10 Arijit Singh Songs | Easy One String Bollywood Hindi Songs Tabs

MASHUP COVER


PiANO COVER


LESSON VIDEO



BACKING TRACK 
(Available on Google Play & i-Tunes)



TABS
KABHI JO BADAL single string guitar tabs
E|--5--7--8--7--8--10-7-- B|----------------------- G|----------------------- D|----------------------- A|----------------------- E|-----------------------
E|--5--7--8--7--8--10-7-- B|----------------------- G|----------------------- D|----------------------- A|----------------------- E|-----------------------

E|--5--7--8--7--8--10-7-- B|----------------------- G|----------------------- D|----------------------- A|----------------------- E|-----------------------

E|--3--5--7--5--3--1--0-- B|----------------------- G|----------------------- D|----------------------- A|----------------------- E|-----------------------

PHIR MOHABBAT single string guitar tabs
E|--0--5--5--5--3--3--5--5--7--7--7--8--8--8\10-10-7--7/5-- B|---------------------------------------…

MALANG Guitar Chords and TABs Lesson with Cover by FUXiNO | FX-MUSIC | Malang Title Track by Aditya Roy Kapoor & Disha Patani

Image
MALANG TITLE TRACK GUITAR CHORDS BY FUXINO WITH INSTRUMENTAL COVER 

CHORD USED - Em,C,G,D,Am (Capo on 3rd fret)


E|--10-10-10-10-10h11-10-10-
B|----------------------------------
G|----------------------------------
D|---------------------------------
A|---------------------------------
E|---------------------------------


E|--10--------------------------------
B|-----13-11-13-10-11-----10----
G|----------------------------12----
D|--------------------------
A|--------------------------
E|--------------------------


E|--10-10-10-10-10h11-10-10-
B|---------------------------------
G|---------------------------------
D|---------------------------------
A|---------------------------------
E|---------------------------------


E|------10---------------------------------
B|--11----13-11-11\13-10--11-10------
G|---------------------------------------------12---
D|------------------------------------------
A|------------------------------------------
E|------------------------------------------


E|…

Yaad Piya Ki Aane Lagi Guitar Tabs and Chords with intro and all Solo By Fuxino | Fxmusic | Faisu | Neha Kakkar | Divya Kumar

Image
Yaad Piya Ki Aane Lagi Bheegi Bheegi Raaton Mein Full Song Guitar Tabs,Chords,intro and all Solo Notes by Fuxino
CHORDS - Em,D,C,Bm  (Capo on 1st Fret)

TABS

INTRO
E|--8-----------------------------
B|-----9---9\11----8---8h9--8-----
G|----------------10--------------8--
D|--------------------------------
A|--------------------------------
E|--------------------------------


E|--8-----------------------------
B|-----9---9\11----8---8h9--8-----
G|----------------10--------------8--
D|--------------------------------
A|--------------------------------
E|--------------------------------

WATCH THIS TUTORIAL VIDEO IF YOU ARE GETTING CONFUSED



Aasmaa me ,,,,,,
E|--8--------------------------------------
B|-----8--8--8--------------------8--8--8-----
G|---------------10-10-8------8-----------10-
D|-------------------------10----------------
A|-----------------------------------------
E|-----------------------------------------

E|-----8--8-----------------------------------
B|-----------8--8-----…

Kaise Hua Guitar Tabs, Chords with Electric Guitar SOLO by Fuxino | FX-MUSIC

Image
CHORDS - Bm,F#m,G,A,D,Em


E|-----------------------------
B|--3-----3-----3-----3-----3--
G|-----4-----4-----4-----4-----
D|-----------------------------
A|-----------------------------
E|-----------------------------

E|-----------------------------
B|--3-----3-----3-----3-----3--
G|-----4-----4-----4-----4-----
D|-----------------------------
A|-----------------------------
E|-----------------------------


E|-----------
B|--2--------
G|-----4--2--
D|-----------
A|-----------
E|-----------


E|-----------------------------
B|--3-----3-----3-----3-----3--
G|-----4-----4-----4-----4-----
D|-----------------------------
A|-----------------------------
E|-----------------------------

E|-----------------------------
B|--3-----3-----3-----3-----3--
G|-----4-----4-----4-----4-----
D|-----------------------------
A|-----------------------------
E|-----------------------------


E|-----------
B|--2--------
G|-----4--2--
D|-----------
A|-----------
E|-----------


E|--------------
B|-----2--3-----
G|--…

Kabir Singh Theme Music (Full Song BGM) - Electric Guitar Cover By Fuxino | FX-Music

Image
Kabir singh theme music full song mass bgm (background music of movie and trailer) - electric guitar cover by fuxino. In this video i have played kabir singh theme song or Arjun reddy theme song nusic on electric guitar to make its sound like original and many of you were requesting me for this kabir singh theme music cover video and few were asking to play it on acoustic guitar with tutorial, so if i got good response and your huge comments i will try to arrange this kabir singh theme music on acoustic guitar.
Leave your Comments below and give me a Like and please Share this video.
FUXiNO

Free Guitar Pick Guitar Pick Made With Jio SIM Card | Tutorial Video | Helpful video for Guitarist

Image
CLICK ON THIS RED BUTTON TO WATCH FULL VIDEO
 CLICK👇👇👇     




We guitar players often lose our guitar plectrum here and there, sometimes it is difficult to get new one immediately, so I have found this video on youtube (someone shared on my Instagram) and this is very helpful for us to make our custom guitar picks on the go by using Jio SIM card as mentioned in this video.

Click the red button above and watch full tutorial to make your own custom guitar plectrum in few minutes.
Thank You.
Admin Pannel

Most Used Song (Ummon Hiyonat) in Tik Tok Videos with Shayri - Guitar Tabs by Fuxino | Fxmusic

Image
Please Watch This Video For Better Understanding.


E|-----------------
B|--12-12-11hp12----
G|----------------------13-
D|-----------------
A|-----------------
E|-----------------

E|-----------------
B|--12-12-11hp12----
G|----------------------13-
D|-----------------
A|-----------------
E|-----------------

E|--------------
B|------11-------
G|--13----13-11-
D|--------------
A|--------------
E|--------------

E|--------------------------
B|---------9--11-11--9hp11----
G|--8--11-----------------------11-
D|--------------------------
A|--------------------------
E|--------------------------

E|--------------
B|--11--9hp11----
G|------------------11-
D|--------------
A|--------------
E|--------------

E|--------------
B|--9--9--------
G|----------11-9--
D|--------------
A|--------------
E|--------------

Repeat

E|-----------------
B|--12-12-11hp12----
G|----------------------13-
D|-----------------
A|-----------------
E|-----------------

E|-----------------
B|--12-12-11hp12----
G|------------…