Posts

VAASTE GUITAR TABS,CHORDS with Backing Track by FUXiNO | FX-MUSIC

Image
WATCH MY VIDEO FOR BETTER UNDERSTANDING...

Chord Used - Capo on 5th Fret C,G,Am,F

STRUMMING - D-UDU-D-UDU-DD - (DU)*  Last (DU)* Stroke is filler
Backing Track is Available Below of This Post (Scroll Down)
TABS
SYMBOLS (/) Slide Down (\) Slide Up   (h) Hammer On   (p) Pull Off   (x) Muted

INTRO E|------------------------------------- B|--\6--6--6--6---6--6--6---6--6-- G|------------------------------------ D|------------------------------------- A|------------------------------------ E|------------------------------------

E|--------------------------------------- B|---6\8--8--8--8---8--8--8---8--8-- G|--------------------------------------- D|--------------------------------------- A|--------------------------------------- E|--------------------------------------- IT TAKES A-LOT OF TIME AND EFFORTS TO MAKE VIDEOS,BACKING TRACK AND THESE WRITTEN NOTES, SO IF YOU WANT TO ENCOURAGE ME YOU CAN BY DONATING ANYTHING (CLICK ON THIS PAYTM ICON) Donate with


E|---------------------------------------…

Senorita Guitar Tab Sheet with Chords and Bass Guitar Notes by FUXiNO | Shawn Mendes, Camila Cabello | | FX MUSIC

Image
CHORD USED
Am,C,F,Em,G

PROGRESSIONS
Am>C>F>Em>G
Am>C>G

With CAPO on 5th - Em,G,C,Bm,D

PROGRESSIONS with CAPO
Em>G>C>Bm>D
Em>G>D


IT TAKES ALOT TIME TO MAKE VIDEOS AND NOTES, SO IF YOU WANT TO SUPPORT MY WORK, YOU CAN BY DONATE ANYTHING TO ENCOURAGE ME Donate with


BASS LINE (Muted Bass Guitar Notes on Standard Acoustic Guitar)
(Am)
E|-----------------------------------
B|-----------------------------------
G|-----------------------------------
D|------------------5--7--5---------
A|-----7--7-----7-----------7--5--
E|--5--------5----------------------

(C)
E|-----------------------------------
B|----------------------------------
G|-----------------------2-----------
D|-----5--5-----5--5-----5--2--0--
A|--3--------3----------------------
E|----------------------------------

(F)
E|-----------------------------------
B|-----------------------------------
G|-----------------------------------
D|-----------------------0-----------
A|-----3-…

TERA BAN JAUNGA Guitar Tabs Lesson w/ Cover & Chords by FUXiNO | Kabir Singh | FX-MUSIC

Image
CHORD USED -  B,E,G#m
TABS
E|--------------------------------
B|--------7--4--------------7--4--
G|--4--6--------6--4--4--6--------
D|--------------------------------
A|--------------------------------
E|--------------------------------


E|-----------------------------
B|--------7--4--9--7---7\9--7--
G|--4--6-----------------------
D|-----------------------------
A|-----------------------------
E|-----------------------------

E|-----------------------------
B|-----------7--4---4hp5--------
G|--4--6--6--------------6--4--
D|-----------------------------
A|-----------------------------
E|-----------------------------

E|-----------------
B|-------------7--4--
G|--4--6--6--------
D|-----------------
A|-----------------
E|-----------------

E|-----------------------------
B|--------7--4--9--7---7\9--7--
G|--4--6-----------------------
D|-----------------------------
A|-----------------------------
E|-----------------------------


E|--7--6--9--7--7--6--6--------------------
B|---------------------------9--9--7--7\9--9--
G|---…

O Mehndi Pyar Wali Hathon Pe Lagaogi Guitar Tabs & Chords | O Dil Tod Ke Hasti Ho Mera | TIK TOK VIRAL SONG

Image
CHORDS > A#m,G#,F#

STRUMMING >D-UU


TABS


INTRO
E|--------------------
B|------------13hp14-------
G|--15-15-------------15-13-
D|--------------------
A|--------------------
E|--------------------


E|--------------------
B|------------13hp14-------
G|--15-15-------------15-13-
D|--------------------
A|--------------------
E|--------------------



E|--------------------
B|------------13hp14-------
G|--15-15-------------15-13-
D|--------------------
A|--------------------
E|--------------------


(EASY VERSION OF INTRO)

E|-----------8hp9--------
B|--11-11----------11-9--
G|--------------------
D|--------------------
A|--------------------
E|--------------------


SONG

E|--------------------------------------------
B|--------4---4--6--6--6---4--6-----4--4--6--6--
G|--\6--6----------------------------6--------------
D|--------------------------------------------
A|--------------------------------------------
E|--------------------------------------------

E|--------------------
B|--6--4----------…

Tujhe Kitna Chahne Lage Hum Guitar Tabs Lesson w/ Cover & Chords | KABIR SINGH | FUXiNO

Image
CHORD USED - B,G#m,E,F#,C#m,Dm

TABS

SYMBOLS (/) Slide Down (\) Slide Up   (h) Hammer On   (p) Pull Off   (x) Muted

E|-----------------------------------
B|--2\5--4-----------------------------
G|------------6--4--6\8-----------
D|-----------------------------------
A|-----------------------------------
E|-----------------------------------


E|-----------------------------------
B|----------------------------------
G|---3--4--6--4--4---------------
D|-----------------------------------
A|-----------------------------------
E|-----------------------------------


E|--------------------------------
B|--\7--7--7--7/-------------------
G|-----------------\4--------------------
D|--------------------------------
A|--------------------------------
E|--------------------------------

E|--------------------------------
B|--------4hp5--------
G|-4--6---------6--6--
D|--------------------------------
A|--------------------------------
E|--------------------------------

IT TAKES A-LOT OF EFFORT TO MAKE…

BEKHAYALI GUITAR TABS & CHORDS by FUXiNO | ARIJIT SINGH | KABIR SINGH | FX-MUSIC

Image
WATCH MY VIDEO FOR BETTER UNDERSTANDING...

Chord Used - Am,G,F,Em,E,Dm,Dm7,Am7  (*Only Chord Used in My Video)

WATCH THIS BEKHAYALI CHORDS LESSON



STRUMMING - (watch above video for complete Strumming,intro and finger plucking) DD-DD  ( On Electric Guitar) DDDD    (On Electric Guitar)
IT TAKES A LOT OF TIME AND EFFORTS TO MAKE THESE VIDEOS AND NOTES. SO IF YOU WANT TO SUPPORT MY WORK YOU CAN BY DONATING ANYTHING YOU WANT (Click On This Button) Donate with
TABS
SYMBOLS (/) Slide Down (\) Slide Up   (h) Hammer On   (p) Pull Off   (x) Muted
E|--------------
B|-----13-12-15-
G|--14----------
D|--------------
A|--------------
E|--------------

E|--------------
B|-----13-12-15-
G|--14----------
D|--------------
A|--------------
E|--------------

E|-----------------------
B|-----13-12-------------
G|--14-------14-12-14\16-
D|-----------------------
A|-----------------------
E|-----------------------


E|--------------
B|-----13-12-15-
G|--14----------
D|--------------
A|--------------
E|--------------

E|--------------
B|-----13-12-1…