Posts

Showing posts from 2016

Channa Mereya-Ae dil hai mushkil Tabs with intro

Image
ACHA CHALTAA HU...............
e-8-10-10s12-12-12-12-
e-12-10-8-7-7-8-5-5---
e-5-7-7s8-8-8s10-8s7-5-3-3s5-3-3 DIL K SANDOOKO PE.............
e-8-10-10s12-12-12-12s15-13s12-10-8-8s10-5-5--
e-5-7-7s8-8-8-8s10-8p7-5-3-3s5-3-3------------- INTRO
e-7-8-7-8---8-8----------8-10-8-10-10-10-------- e-7-8-7-8---8-8----------8-10-8-10-10-10-------- NOTE-Use hammer/pull off between notes for real feel(as i played in video) {{{{{{e-7h/p8-7h/p8---8-8----------8h/p10-8h/p10-10-10--------}}}}}} ANDHERA MERA...................
e-3-5-8-10-8s10-10-5-5-8-8s13-13-13-15-15-13-13-13-17-15-13-12-10-10-12s13-12p10-8-7-7p8------ CHANNA MEREYA MEREYA.........
e-7-7--8-8-8-7-8p10-8---------------------------------------
e-3-3--5-5-5-7s8-5-3----------------------------------------
e-0-0--1-1-1-5-7-7s8-5-3-3---------------------------------------

Ae dil hai mushkil Guitar Tabs | Arijit singh

Image
TU SAFAR MERA
G--------------------------------------------------------------11-11-10----------------------------------
B-----12-11-12-11-12-11--\9-9-9\11-11-9-11-9-11po9--------------12-12-14po12-11------------
e------------------------------------------------------------------------------------------------------------
REPEAT
MUJHE AAZMATI HAI....................................
G-----------------------------------------------------------------------------
B----------------------------------14-12-12-16/14-12-11-------------------
e-13-13h14-14-16po14-13/11-----------------------------------------------------
YE ROOH BHI MERI.............................
G----------------------------------------------------------
B-11--------------------------------------------------------
e----14\16-14-13/11-11-13\14----REPEAT---------------------------
UTNA NAHI TERA...........................................
G---------------------------------------
B-11---------------------------------------
e----…

Lo Maan Liya Humne Guitar Tabs | Raaz Reboot

Image
intro
B-1s2-
e------5-4-5-4-5-4-5\7-7-4-4--------------------------------------------------------------------------------

B-1s2-
e------5-4-5-4-5-4-5\7-7-4-4---4-----------------------------------------------------------------------------
B-2s5----------------------------------------------------------------------------------------------------
e------9-7-9-7-9-7-9\10-10-7-7---7-5-9-9-5-5-2-5-4-----------------------------------
LO MAAN LIYA..........
e-2-2h4-5-2-2-h4-5-9-9-7---------
e-4-4/2-2-1-1-4-4-2-2---------------------------------------------------------------- e-2-2h4-5-2-2-h4-5-9-9-7---------
e-4-4/2-2-1-1-4-4-2-2----------------------------------------------------------------
BAS EK DAFA..........
e-2-4-5-4-4-0-12-12-10-10-13\14-13-13-9-9-7-7-10-9-------------------------------
e-2-4-5-4-4-0-12-12-10-10-13\14-13-13-9-9-7-7-10-9-------------------------------
LO MAAN LIYA DEKHA HI NAHI...............................
e-9h12-5-5-5-5-5-4-5\7-7-7-7-4-4-4/2-2-1-1-4-4-2-2----------…

TITANIC Theme Guitar Tabs Lesson on SINGLE STRING|My heart will Go on Tabs|Finger-taping

Image
INTRO
e--5s7-7s9-10po9-7s5-9---s12-12-10s9-7s5-5--------------------
Repeat

e--9-12s14-14-12-7h/p9---------------------------------------------

SONG
e-0-5--5-5--5-5-4-5--5-5-4-5-5s7-9-10po9-7---------------------

e-5-5-5-5s4-4-4s5-5s0-0--------------------------------------------
REPEAT

e-0-2-4-4s5-0-7-0-10s12(or12)-12-10-9h/p10-7-----------------

e-7-9-9h10-9-9-7-5-4-5-5-5-4-5-7-9-10po9-7-5-----------------





if in doubt plz ask in comment box below.


Image
G-------------------------------
B------------------------------
e--7-9-7-10-9-9-7------------------

G-------------------------------
B----10--8-8--8-7-8--------------------
e--7-----------------

G-- --------------------------9---------9-7---(jump)------
B--------10-10-8--7-7-8-7---7----7-----------
e--9-7-7---------------

G----------------9-7-9---9-7-9--------
B----10-10-8-7--------7---------------
e--7-----------------

Fast portion

G-------------------------------
B-----------7-7------------------
e--6-7-9-6--------------


G-------------------------------
B--7-9---------------------------
e-------6---7-6-7--9-7-9--10-9-10--12-10-12--12s14---

s-slide
jump-watch video to understand this term 
Follow my facebook page for all updates https://www.facebook.com/FuzailXiddiqui/




BOL DO NA ZARA Guitar Tabs with Intro-e string| Azhar | Emraan Hashmi| Armaan Malik, Amaal Mallik

Image
intro
e-9-9-9-10-7---------------------

e-9-9-9-10-7---------------------------


e-9-9-9-10-12------------------------------------------------------------

e-12-14-17---12-14-12-10/9----------------------------------------------

song

itni mohabbat......
e-7-7-7-5-7-7\9-7-7--7-------------------------------------------------------

mai doob.....
b-10--------------------------------------------------
e----12-12-12-10-10-12-7-9-----------------------------

wapis kinare....
e-7-7-7-5-7-7\9-7-7--7-------------------------------------------------------

mai bhool na.....
 b-10--------------------------------------------------
e----12-12-12-10-10-12-7-9------------------



Dekha jab se....
e-9-10-12\14-14-12-10/9-9-10-7h9-7--------------------------
mai to hafto se.....
e-7-9--9\10-10-9-7-9/7-5-7\9-----------------------------------

Bol do na zara
b----------7-------------------------------------------------------
e-7h9-7-7---7-9-9\10--------------------------------------------

dil me hai....
b…

LOVER BOY GUITAR CHORDS BADSHAH AND SHREYA

Image
KEY C#mchords used (power chords) - C#m,,B[VERSE]C#m Vekheya jahan saara C#m Vekheya aasman saara C#mB Sab kujh vekhi aaya main C#m Kise di gallan exotic C#m Kise di akhan hypnotic C#m Tere utte rukeya main C#m Par tere vargi naar nai B Oh hoya bura haal nai C#m Lage tere koi chaal nayi B But you don’t understand girl B Let me be your man [CHORUS]C#mB I wanna be your lover boy (oh..) C#mB I wanna be your lover boy (I wanna… ) C#m I wanna be your lover boy C#mB Merhaba merhaba, habibi habibi BC#m I wanna be your lover boy C#mB Merhaba merhaba, habibi habibi BC#m I wanna be your lover boy [VERSE]C#m Ik baat kahun jo bhura na maane C#m Sath rahun tere kisi bahane C#m Maana tere kayi deewane C#m Mujhse miley par koi toh jaane C#m Sava maheena nikhal gaya C#m Baby pichhe tere ghoom ghoom ke C#m Screen phone ki gandi ho gayi C#m DP teri choom choom ke C#m Chhi mat kar pyaar mein hoon C#…

kabhi na kabhi to milogi/shapit guitar tabs on single string

Image
part1

e-9-11-12-9-11-9-7-9-7-5-7-5-4-2-0-5-7s9-7s5--------


part2

e-7-9-11-7-9-7-5-7-5-4-5-4-2-0-0-5-4-------------------

watch video for better understanding

Follow my facebook page for all updates https://www.facebook.com/FuzailXiddiqui/

Janam Janam guitar tabslDilwale theme Guitar tabslfuzail xiddiqui

Image
G-------------------------------
B------------------------------
e--7-9-7-10-9-9-7------------------

G-------------------------------
B----10--8-8--8-7-8--------------------
e--7-----------------

G-- --------------------------9---------9-7---(jump)------
B--------10-10-8--7-7-8-7---7----7-----------
e--9-7-7---------------

G----------------9-7-9---9-7-9--------
B----10-10-8-7--------7---------------
e--7-----------------

Fast portion

G-------------------------------
B-----------7-7------------------
e--6-7-9-6--------------


G-------------------------------
B--7-9---------------------------
e-------6---7-6-7--9-7-9--10-9-10--12-10-12--12s14---

s-slide
jump-watch video to understand this term






IJAZAT ONE NIGHT STAND ARIJIT SINGH GUITAR INTRO(1st string) WITH VIDEO

Image
B-------------------------0h2----------
e-4h5-4-5-2h4-2po2---------------


h-hammer
po-pull off
optional--You can use slide instead of hammer
Key-F#m
Follow my facebook page for all updates https://www.facebook.com/FuzailXiddiqui/

Huwa hai aaj pehli baar SANAM RE Guitar intro tabs with video

Image
INTRO TABS

G---------------------------
B--7------------7-------------
e----5-4-5-4-5---5h\p7-4-5--

G------------------------- 7-6-
B--7-------------7-5h\p7-----
e-----5-4-5-4-5-------------
h\p= hammer and pull off

song tabs.........................;