Posts

Showing posts from April, 2016

LOVER BOY GUITAR CHORDS BADSHAH AND SHREYA

Image
KEY C#mchords used (power chords) - C#m,,B[VERSE]C#m Vekheya jahan saara C#m Vekheya aasman saara C#mB Sab kujh vekhi aaya main C#m Kise di gallan exotic C#m Kise di akhan hypnotic C#m Tere utte rukeya main C#m Par tere vargi naar nai B Oh hoya bura haal nai C#m Lage tere koi chaal nayi B But you don’t understand girl B Let me be your man [CHORUS]C#mB I wanna be your lover boy (oh..) C#mB I wanna be your lover boy (I wanna… ) C#m I wanna be your lover boy C#mB Merhaba merhaba, habibi habibi BC#m I wanna be your lover boy C#mB Merhaba merhaba, habibi habibi BC#m I wanna be your lover boy [VERSE]C#m Ik baat kahun jo bhura na maane C#m Sath rahun tere kisi bahane C#m Maana tere kayi deewane C#m Mujhse miley par koi toh jaane C#m Sava maheena nikhal gaya C#m Baby pichhe tere ghoom ghoom ke C#m Screen phone ki gandi ho gayi C#m DP teri choom choom ke C#m Chhi mat kar pyaar mein hoon C#…

kabhi na kabhi to milogi/shapit guitar tabs on single string

Image
part1

e-9-11-12-9-11-9-7-9-7-5-7-5-4-2-0-5-7s9-7s5--------


part2

e-7-9-11-7-9-7-5-7-5-4-5-4-2-0-0-5-4-------------------

watch video for better understanding

Follow my facebook page for all updates https://www.facebook.com/FuzailXiddiqui/

Janam Janam guitar tabslDilwale theme Guitar tabslfuzail xiddiqui

Image
G-------------------------------
B------------------------------
e--7-9-7-10-9-9-7------------------

G-------------------------------
B----10--8-8--8-7-8--------------------
e--7-----------------

G-- --------------------------9---------9-7---(jump)------
B--------10-10-8--7-7-8-7---7----7-----------
e--9-7-7---------------

G----------------9-7-9---9-7-9--------
B----10-10-8-7--------7---------------
e--7-----------------

Fast portion

G-------------------------------
B-----------7-7------------------
e--6-7-9-6--------------


G-------------------------------
B--7-9---------------------------
e-------6---7-6-7--9-7-9--10-9-10--12-10-12--12s14---

s-slide
jump-watch video to understand this term






IJAZAT ONE NIGHT STAND ARIJIT SINGH GUITAR INTRO(1st string) WITH VIDEO

Image
B-------------------------0h2----------
e-4h5-4-5-2h4-2po2---------------


h-hammer
po-pull off
optional--You can use slide instead of hammer
Key-F#m
Follow my facebook page for all updates https://www.facebook.com/FuzailXiddiqui/

Huwa hai aaj pehli baar SANAM RE Guitar intro tabs with video

Image
INTRO TABS

G---------------------------
B--7------------7-------------
e----5-4-5-4-5---5h\p7-4-5--

G------------------------- 7-6-
B--7-------------7-5h\p7-----
e-----5-4-5-4-5-------------
h\p= hammer and pull off

song tabs.........................;