Posts

Showing posts from May, 2016

BOL DO NA ZARA Guitar Tabs with Intro-e string| Azhar | Emraan Hashmi| Armaan Malik, Amaal Mallik

Image
intro
e-9-9-9-10-7---------------------

e-9-9-9-10-7---------------------------


e-9-9-9-10-12------------------------------------------------------------

e-12-14-17---12-14-12-10/9----------------------------------------------

song

itni mohabbat......
e-7-7-7-5-7-7\9-7-7--7-------------------------------------------------------

mai doob.....
b-10--------------------------------------------------
e----12-12-12-10-10-12-7-9-----------------------------

wapis kinare....
e-7-7-7-5-7-7\9-7-7--7-------------------------------------------------------

mai bhool na.....
 b-10--------------------------------------------------
e----12-12-12-10-10-12-7-9------------------



Dekha jab se....
e-9-10-12\14-14-12-10/9-9-10-7h9-7--------------------------
mai to hafto se.....
e-7-9--9\10-10-9-7-9/7-5-7\9-----------------------------------

Bol do na zara
b----------7-------------------------------------------------------
e-7h9-7-7---7-9-9\10--------------------------------------------

dil me hai....
b…