Posts

Showing posts from June, 2016

VAASTE GUITAR TABS,CHORDS with Backing Track by FUXiNO | FX-MUSIC

Image
WATCH MY VIDEO FOR BETTER UNDERSTANDING...

Chord Used - Capo on 5th Fret C,G,Am,F

STRUMMING - D-UDU-D-UDU-DD - (DU)*  Last (DU)* Stroke is filler
Backing Track is Available Below of This Post (Scroll Down)
TABS
SYMBOLS (/) Slide Down (\) Slide Up   (h) Hammer On   (p) Pull Off   (x) Muted

INTRO E|------------------------------------- B|--\6--6--6--6---6--6--6---6--6-- G|------------------------------------ D|------------------------------------- A|------------------------------------ E|------------------------------------

E|--------------------------------------- B|---6\8--8--8--8---8--8--8---8--8-- G|--------------------------------------- D|--------------------------------------- A|--------------------------------------- E|--------------------------------------- IT TAKES A-LOT OF TIME AND EFFORTS TO MAKE VIDEOS,BACKING TRACK AND THESE WRITTEN NOTES, SO IF YOU WANT TO ENCOURAGE ME YOU CAN BY DONATING ANYTHING (CLICK ON THIS PAYTM ICON) Donate with


E|---------------------------------------…
Image
G-------------------------------
B------------------------------
e--7-9-7-10-9-9-7------------------

G-------------------------------
B----10--8-8--8-7-8--------------------
e--7-----------------

G-- --------------------------9---------9-7---(jump)------
B--------10-10-8--7-7-8-7---7----7-----------
e--9-7-7---------------

G----------------9-7-9---9-7-9--------
B----10-10-8-7--------7---------------
e--7-----------------

Fast portion

G-------------------------------
B-----------7-7------------------
e--6-7-9-6--------------


G-------------------------------
B--7-9---------------------------
e-------6---7-6-7--9-7-9--10-9-10--12-10-12--12s14---

s-slide
jump-watch video to understand this term 
Follow my facebook page for all updates https://www.facebook.com/FuzailXiddiqui/