Posts

Showing posts from September, 2016

Ae dil hai mushkil Guitar Tabs | Arijit singh

Image
TU SAFAR MERA
G--------------------------------------------------------------11-11-10----------------------------------
B-----12-11-12-11-12-11--\9-9-9\11-11-9-11-9-11po9--------------12-12-14po12-11------------
e------------------------------------------------------------------------------------------------------------
REPEAT
MUJHE AAZMATI HAI....................................
G-----------------------------------------------------------------------------
B----------------------------------14-12-12-16/14-12-11-------------------
e-13-13h14-14-16po14-13/11-----------------------------------------------------
YE ROOH BHI MERI.............................
G----------------------------------------------------------
B-11--------------------------------------------------------
e----14\16-14-13/11-11-13\14----REPEAT---------------------------
UTNA NAHI TERA...........................................
G---------------------------------------
B-11---------------------------------------
e----…

Lo Maan Liya Humne Guitar Tabs | Raaz Reboot

Image
intro
B-1s2-
e------5-4-5-4-5-4-5\7-7-4-4--------------------------------------------------------------------------------

B-1s2-
e------5-4-5-4-5-4-5\7-7-4-4---4-----------------------------------------------------------------------------
B-2s5----------------------------------------------------------------------------------------------------
e------9-7-9-7-9-7-9\10-10-7-7---7-5-9-9-5-5-2-5-4-----------------------------------
LO MAAN LIYA..........
e-2-2h4-5-2-2-h4-5-9-9-7---------
e-4-4/2-2-1-1-4-4-2-2---------------------------------------------------------------- e-2-2h4-5-2-2-h4-5-9-9-7---------
e-4-4/2-2-1-1-4-4-2-2----------------------------------------------------------------
BAS EK DAFA..........
e-2-4-5-4-4-0-12-12-10-10-13\14-13-13-9-9-7-7-10-9-------------------------------
e-2-4-5-4-4-0-12-12-10-10-13\14-13-13-9-9-7-7-10-9-------------------------------
LO MAAN LIYA DEKHA HI NAHI...............................
e-9h12-5-5-5-5-5-4-5\7-7-7-7-4-4-4/2-2-1-1-4-4-2-2----------…