Ae dil hai mushkil Guitar Tabs | Arijit singh

TU SAFAR MERA
G--------------------------------------------------------------11-11-10----------------------------------
B-----12-11-12-11-12-11--\9-9-9\11-11-9-11-9-11po9--------------12-12-14po12-11------------
e------------------------------------------------------------------------------------------------------------
REPEAT

MUJHE AAZMATI HAI....................................
G-----------------------------------------------------------------------------
B----------------------------------14-12-12-16/14-12-11-------------------
e-13-13h14-14-16po14-13/11-----------------------------------------------------

YE ROOH BHI MERI.............................
G----------------------------------------------------------
B-11--------------------------------------------------------
e----14\16-14-13/11-11-13\14----REPEAT---------------------------

UTNA NAHI TERA...........................................
G---------------------------------------
B-11---------------------------------------
e----14\16-14-13/11-11-11h13-------

Rest lines are same
if in doubt please ask



Comments

Post a comment

Popular posts from this blog

Single String Guitar Songs Mashup - 10 Arijit Singh Songs | Easy One String Bollywood Hindi Songs Guitar Tabs

Tum Hi Aana Guitar Tabs with intro, Chords and Backing Track by Fuxino | Jubin Nautiyal | Marjaavaan | FxMusic

Tujhe Kitna Chahne Lage Hum Guitar Tabs Lesson w/ Cover & Chords | KABIR SINGH | FUXiNO