Lo Maan Liya Humne Guitar Tabs | Raaz Reboot

intro
B-1s2-
e------5-4-5-4-5-4-5\7-7-4-4--------------------------------------------------------------------------------


B-1s2-
e------5-4-5-4-5-4-5\7-7-4-4---4-----------------------------------------------------------------------------

B-2s5----------------------------------------------------------------------------------------------------
e------9-7-9-7-9-7-9\10-10-7-7---7-5-9-9-5-5-2-5-4-----------------------------------

LO MAAN LIYA..........
e-2-2h4-5-2-2-h4-5-9-9-7---------
e-4-4/2-2-1-1-4-4-2-2----------------------------------------------------------------
e-2-2h4-5-2-2-h4-5-9-9-7---------
e-4-4/2-2-1-1-4-4-2-2----------------------------------------------------------------

BAS EK DAFA..........
e-2-4-5-4-4-0-12-12-10-10-13\14-13-13-9-9-7-7-10-9-------------------------------
e-2-4-5-4-4-0-12-12-10-10-13\14-13-13-9-9-7-7-10-9-------------------------------

LO MAAN LIYA DEKHA HI NAHI...............................
e-9h12-5-5-5-5-5-4-5\7-7-7-7-4-4-4/2-2-1-1-4-4-2-2---------------------------------------------
e-9h12-5-5-5-5-5-4-5\7-7-7-7-4-4-4/2-2-1-1-4-4-2-2---------------------------------------------

REST LINES ARE SAME THROUGH OUT THE SONG
if in doubt please ask in comment box



Comments

  1. Please post full tabs or only video of full song

    ReplyDelete

  2. taht rpf sbat evig zlp u naC . . gnirts dn2 egt ni dryalp uoy tsal nIynUGnUGGjdhdhdjcCC

    ReplyDelete
  3. Please give the tabs which u played in the 2nd string for the last line. . on 1st string sliding to 5 is not sounding well

    ReplyDelete
  4. It's messed up ...plzz edit this and make it clear like ur new songs

    ReplyDelete

Post a Comment

Popular posts from this blog

Single String Guitar Songs Mashup - 10 Arijit Singh Songs | Easy One String Bollywood Hindi Songs Guitar Tabs

Tum Hi Aana Guitar Tabs with intro, Chords and Backing Track by Fuxino | Jubin Nautiyal | Marjaavaan | FxMusic

O Pata Nahi Ji Kaunsa Nasha Karta hai Guitar Tabs & Chords - Titliyan | Hardy Sandhu | Yaar Mera Titliyan Warga | Fx-Music | Fuxino