BULLEYA Guitar Tabs-SINGLE STRING | Ae Dil Hai Mushkil

Meri Rooh Ka Parinda.....
e|-0-8-7-8-7-8-7-8-7-8-7-8-5-5-3-5-3-1-0
Lekin sukoon ka jazeera....
e|-0-0-8-7-8-7-8-7-8-7-8-5-5-3-5-3-1-0
Ve ki kara...
e|-0-0-0-1-3\5-3-1h3-1-0
Ranjan De yaar Bulleya....
e|--5-5--5-5-5-7\8-7---
e|--5-5--5-5-5-7\8-8-8\10-10-10-7-7-5-7-5-3-3-5\7-5-5-8-8\10-8-7
Ranjan de yaar Bulleya(high)....
e|-5-5-12-10-10-8-7-8-8\10-10-10-7-7-5-7-5-3-3-5\7-5-5-8-8\10-8-7
INTRO
B|-10---------------------8-8\10(~)
e|------8-7-8-10-8-7---------------
B|-6---------------------8-8p6(~)
e|----8-7-8-10-8-7
(Fast Portion)
B|-10--------------------10
e|------8-7-8-10-8-7
B|-6----------------------8
e|------8-7-8-10-8-7
Repeat wherever required
\=Slide
h=hammer
P=pull off
~=vibratto


Please Watch Video of This song on my channel for complete Understanding.
If any doubt,correction is there,please drop your comment below.

Comments

  1. How can I learn this on walk band ? Suggest me...

    ReplyDelete
  2. Are o sambhu E string 0 K JAGAH B STRING K 5 DE DETE...KYA CHUTIYAPA H

    ReplyDelete
    Replies
    1. Sirf akk bar kya aaya tune gali di uski mahenat dek sale

      Delete
  3. Thanks it helped me very much

    ReplyDelete

Post a Comment

Popular posts from this blog

Single String Guitar Songs Mashup - 10 Arijit Singh Songs | Easy One String Bollywood Hindi Songs Guitar Tabs

Tum Hi Aana Guitar Tabs with intro, Chords and Backing Track by Fuxino | Jubin Nautiyal | Marjaavaan | FxMusic

O Pata Nahi Ji Kaunsa Nasha Karta hai Guitar Tabs & Chords - Titliyan | Hardy Sandhu | Yaar Mera Titliyan Warga | Fx-Music | Fuxino