Posts

Showing posts from July, 2017

Karz Theme guitar tabs on Single string by fuzail xiddiqui

Image
This is The Easiest Version of Karz Theme Specially for Beginners. (Watch my video for complete understanding)
Note-few notes are modified to make it more easy for beginners.

E|--7--5--7--8--
B|--------------
G|--------------
D|--------------
A|--------------
E|--------------

E|--7--5--7--8--
B|--------------
G|--------------
D|--------------
A|--------------
E|--------------

E|--7--5--7--8--
B|--------------
G|--------------
D|--------------
A|--------------
E|--------------


E|--5--
B|-----
G|-----
D|-----
A|-----
E|-----


E|--5--4--5--7--4--
B|-----------------
G|-----------------
D|-----------------
A|-----------------
E|-----------------

E|--7--7--4--7--5--
B|-----------------
G|-----------------
D|-----------------
A|-----------------
E|-----------------



E|--12-12-12-10-10-10-8--8--8--7--7--7--5--
B|-----------------------------------------
G|-----------------------------------------
D|-----------------------------------------
A|-----------------------------------------
E|-------…