Karz Theme guitar tabs on Single string by fuzail xiddiqui


This is The Easiest Version of Karz Theme Specially for Beginners.
(Watch my video for complete understanding)

Note-few notes are modified to make it more easy for beginners.

E|--7--5--7--8--
B|--------------
G|--------------
D|--------------
A|--------------
E|--------------

E|--7--5--7--8--
B|--------------
G|--------------
D|--------------
A|--------------
E|--------------

E|--7--5--7--8--
B|--------------
G|--------------
D|--------------
A|--------------
E|--------------


E|--5--
B|-----
G|-----
D|-----
A|-----
E|-----


E|--5--4--5--7--4--
B|-----------------
G|-----------------
D|-----------------
A|-----------------
E|-----------------

E|--7--7--4--7--5--
B|-----------------
G|-----------------
D|-----------------
A|-----------------
E|-----------------



E|--12-12-12-10-10-10-8--8--8--7--7--7--5--
B|-----------------------------------------
G|-----------------------------------------
D|-----------------------------------------
A|-----------------------------------------
E|-----------------------------------------

E|--7--5--7--8--
B|--------------
G|--------------
D|--------------
A|--------------
E|--------------

E|--7--5--7--8--
B|--------------
G|--------------
D|--------------
A|--------------
E|--------------

E|--7--5--7--8--
B|--------------
G|--------------
D|--------------
A|--------------
E|--------------


E|--5--
B|-----
G|-----
D|-----
A|-----
E|-----


E|--5--4--5--7--4--
B|-----------------
G|-----------------
D|-----------------
A|-----------------
E|-----------------

E|--7--7--4--7--5--
B|-----------------
G|-----------------
D|-----------------
A|-----------------
E|-----------------

Thank You.







Comments

  1. Hi Subham,
    I have a little girl would would like to learn this piece. Any chance the rhythms are written out anywhere?

    Thanks!

    Eric Sutz

    ReplyDelete
  2. This comment has been removed by a blog administrator.

    ReplyDelete

Post a comment

Popular posts from this blog

Single String Guitar Songs Mashup - 10 Arijit Singh Songs | Easy One String Bollywood Hindi Songs Guitar Tabs

Tum Hi Aana Guitar Tabs with intro, Chords and Backing Track by Fuxino | Jubin Nautiyal | Marjaavaan | FxMusic

Tujhe Kitna Chahne Lage Hum Guitar Tabs Lesson w/ Cover & Chords | KABIR SINGH | FUXiNO