Posts

Showing posts from November, 2017

Tum Hi Ho Guitar Tabs/Lead Lesson | SINGLE STRING | Cover | Aashiqui2 | Arijit Singh | For Beginners

Image
*shoutout

INTRO
E|--2--5--9--(5)*---10-5--7--4--          {(5)* is optional}
B|--------------------------
G|--------------------------
D|--------------------------
A|--------------------------
E|--------------------------
((((((((((REPEAT))))))))



HUM TERE BIN.......
E|--9--14-12-12-10-10-9--7--5--7--10-9--9--9--7--7--5--7--7--5--4--2--0--2--
B|--------------------------------------------------------------------------
G|--------------------------------------------------------------------------
D|--------------------------------------------------------------------------
A|--------------------------------------------------------------------------
E|--------------------------------------------------------------------------



TUJSE JUDA GAR.....
E|--9--14-12-12-10-10-9--7--5--7--10-9--9--9--7--7--5--7--7--5--4--2--0--2--
B|--------------------------------------------------------------------------
G|--------------------------------------------------------------------------
D|------------------…

Tiger Zinda Hai Theme Guitar Tabs/Lead Lesson | Cover | Salman Khan | Katrina Kaif | Rock Acoustic Guitar Lead

Image
SHAPES
(SHAPE-1)
E|--------------------------------
B|--------------------------------
G|--------------------------------
D|--------------------------------
A|-----4-----4-----4-----4-----5--
E|--2-----2-----2-----2-----2-----

Repeat shape-1 four times


(SHAPE-2)
E|--------------------------------
B|--------------------------------
G|-----6-----6-----6-----6-----7--
D|--4-----4-----4-----4-----4-----
A|--------------------------------
E|--------------------------------

E|--------------------------------
B|-----------------------------5--
G|-----6-----6-----6-----6--------
D|--4-----4-----4-----4-----4-----
A|--------------------------------
E|--------------------------------

Repeat Shape-2 twice.


LEAD
(LEAD PART-1)
E|-----------------------
B|-----------------------
G|-----------------------
D|--4(m)--4(m)--4--4--5--------
A|------------------------------7--4--
E|-----------------------


(LEAD PART-2)
E|--------------------
B|--------------------
G|--------------------
D|--4(m)--4(m)--4-…

Mere Sapno Ki Raani Guitar Tabs/Lead Lesson | SINGLE STRING | Easy For Beginners | fuZaiL Xiddiqui

Image
MERE SAPNO KI RANNI KAB AAEGI TU
E|--0--0--5--5--5--3---5\7--7--7--3--5--5--5--5--
B|-----------------------------------------------
G|-----------------------------------------------
D|-----------------------------------------------
A|-----------------------------------------------
E|-----------------------------------------------

AAAI RUTT MASTANI KAB AAEGI TU
E|--0--0--5--5--5--3---5\7--7--7--3--5--1--1--1--
B|-----------------------------------------------
G|-----------------------------------------------
D|-----------------------------------------------
A|-----------------------------------------------
E|-----------------------------------------------

BEETI JAAE ZINDAGANI KAB AAEGI TU
E|-0---0--5--5--5--3---5\7--7--7--5---7\8--8--8--8-----
B|-----------------------------------------------------
G|-----------------------------------------------------
D|-----------------------------------------------------
A|-----------------------------------------------------
E|------------------…

Despacito Guitar Tabs/Lead Lesson in Hindi | Luis Fonsi | Daddy Yankee | Justin Bieber

Image
*shoutout




E|-------------9--10-12-10-9-------------10-10-
B|--12----12------------------12-10----------
G|-----11-------------------------------12-------
D|-----------------------------------------
A|-----------------------------------------
E|-----------------------------------------


E|--10----10----10----10-12-12-9--
B|-----10----10----10-------------
G|--------------------------------
D|--------------------------------
A|--------------------------------
E|--------------------------------


E|------------9--10-12-10-9-----------10-10h12-10-
B|--12----12----------------12-10----------------
G|-----11----------------------------12-------------
D|-----------------------------------------------
A|-----------------------------------------------
E|-----------------------------------------------



E|--10----10----10----10-12-12-9--
B|-----10----10----10-------------
G|--------------------------------
D|--------------------------------
A|--------------------------------
E|----------------------…

Ban Ja Rani Guitar Tabs/Lead Lesson | Guru Randhawa | Tumhari Sulu | Vidya Balan | fuZaiL Xiddiqui

Image
Ban ja tu meri rami tenu mehal dawa dunga.
E|--7--7--7--8--7--------7-----------------8--7-----
B|-----------------10-10----10-8--8--8--8--------10-
G|--------------------------------------------------
D|--------------------------------------------------
A|--------------------------------------------------
E|--------------------------------------------------

Ban mere mahbooba man tenu taaj para dunga.

E|--7--7--7--8--7--------7-----------------8--7-----
B|-----------------10-10----10-8--8--8--8--------10-
G|--------------------------------------------------
D|--------------------------------------------------
A|--------------------------------------------------
E|--------------------------------------------------


Ban ja tuuuuu meri rami tenu mehal dawa dunga.
E|--7--7--7--10-8--7--------7-------------------8--7-----
B|----------------------10-10----10-8--8--8--8--------10-
G|-----------------------------------------------------
D|-----------------------------------------------------

O O JANE JANA GUITAR TABS SINGLE STRING AND MULTISTRING

Image
(((MULTISTRING)))
(Part-1)
E|----------------------12-10-12----
B|---3\10-10-10-----------------13-
G|--------------------------
D|--------------------------
A|--------------------------
E|--------------------------

(Part2) E|------5\10-10----------------
B|---------------------12-10-12-10----
G|-------------------------------------------12-
D|-----------------------------
A|-----------------------------
E|-----------------------------
​FuzaiL Xiddiqui
(Part3) E|------------------------------------
B|-----------------12-12-12-12-
G|-----12-12-------------
D|-----------------------
A|-----------------------
E|-----------------------

(Part4) E|---------------------12-10-12--------10----------
B|-----10-10-10-------------------13-------12-13-10-
G|--------------------------------------
D|--------------------------------------
A|--------------------------------------
E|--------------------------------------

=================================
                 …

Dhinchak Pooja Vs Aunty ki Ghanti Guitar Chords | Selfie Maine Leli aaj guitar chords | dilo ka shooter guitar chords | Bol Na Aunty Aau kya Guitar Chords | Dhinchak Pooja Guitar Chords

Image
Chords Used in My Mashup ((((Em,Dsus2,Cmaj7))))
For Complete Understanding Watch My Video Below

MY MASHUP LYRICS(Modified) Bol na Aunty aau kya Ghanti mai bajau kya Sot mai lagau kya Bol na aunty aau kya              Hit it Bol na Aunty aau kya Ghanti mai bajau kya Sot mai lagau kya      Kya kya kya        (Repeat)
Selfie maine leli aaj Sir pe mere rahta taaj          (Repeat)
Dilo ka shooter Hai mera scooter Dilo ka shooter  Hai mera scooter       COMMON    Dilo ka shooter  Hai mera scooter     Dilo ka shooter        aaa aaaa         (Repeat) Mujhsa na hai koi cuter      Dilo ka shooter
Bol na Aunty aau kya Ghanti mai bajau kya Sot mai lagau kya       Kya kya kya         (Repeat) Bol na aunty aau kya  Chocolate wala lau kya      Raat banau kya          Kya kya kya
     Sot lagau kya      Sot lagau kya       Sot lagau kya        Kya kya kya Bol na Aunty aau kya Ghanti mai bajau kya Sot mai lagau kya   Kya kya kya
  Kya kya kya kya kya         Kya kya kya        aaa aa aa a
Thanks