Ban Ja Rani Guitar Tabs/Lead Lesson | Guru Randhawa | Tumhari Sulu | Vidya Balan | fuZaiL Xiddiqui

Ban ja tu meri rami tenu mehal dawa dunga.
E|--7--7--7--8--7--------7-----------------8--7-----
B|-----------------10-10----10-8--8--8--8--------10-
G|--------------------------------------------------
D|--------------------------------------------------
A|--------------------------------------------------
E|--------------------------------------------------

Ban mere mahbooba man tenu taaj para dunga.

E|--7--7--7--8--7--------7-----------------8--7-----
B|-----------------10-10----10-8--8--8--8--------10-
G|--------------------------------------------------
D|--------------------------------------------------
A|--------------------------------------------------
E|--------------------------------------------------


Ban ja tuuuuu meri rami tenu mehal dawa dunga.
E|--7--7--7--10-8--7--------7-------------------8--7-----
B|----------------------10-10----10-8--8--8--8--------10-
G|-----------------------------------------------------
D|-----------------------------------------------------
A|-----------------------------------------------------
E|-----------------------------------------------------



Sunn Meri Raani Raani
E|--------7--8---8\10-10--8/7-----
B|--10-----------------------------10-
G|-----------------------------
D|-----------------------------
A|-----------------------------
E|-----------------------------

Bann Meri Raani Raani
E|--------7--8---8\10-10--8/7-----
B|--10-----------------------------10-
G|-----------------------------
D|-----------------------------
A|-----------------------------
E|-----------------------------


Shahjahan tu mera tenu mamtaj bana dunga.
E|--7--7--7--8--7--------7-----------------8--7-----
B|-----------------10-10----10-8--8--8--8--------10-
G|--------------------------------------------------
D|--------------------------------------------------
A|--------------------------------------------------
E|--------------------------------------------------

Bann Ja tu meri Raani tenu mehal dawa dunga  aaaah.
E|-----7--7--7--8--7----------7---------------------7-----
B|----------------------10-10----10-8--8--8-----------10-
G|-------------------------------------------------9--------
D|--------------------------------------------------
A|--------------------------------------------------
E|--------------------------------------------------


\-slide
/-back slide

for complete understanding watch my youtube video.
if you have any doubt/any correction please let me know(comment Below)
Thanks for visiting my page.

www.facebook.com/fuzailxiddiqui
www.instagram.com/fuzail_xiddiqui


BAN JA RANI COVER ON AKAI MPK MINI MK2








Comments

  1. Bhai aapne ban ja tu meri rani tenu metal dawa dunga likha hai

    ReplyDelete
    Replies
    1. THANKS BRO...WO AUTOCORRECTION SE HO GAYA HOGA,,,now its fine.Thanks

      Delete

Post a Comment

Popular posts from this blog

Single String Guitar Songs Mashup - 10 Arijit Singh Songs | Easy One String Bollywood Hindi Songs Guitar Tabs

Tum Hi Aana Guitar Tabs with intro, Chords and Backing Track by Fuxino | Jubin Nautiyal | Marjaavaan | FxMusic

O Pata Nahi Ji Kaunsa Nasha Karta hai Guitar Tabs & Chords - Titliyan | Hardy Sandhu | Yaar Mera Titliyan Warga | Fx-Music | Fuxino