Despacito Guitar Tabs/Lead Lesson in Hindi | Luis Fonsi | Daddy Yankee | Justin Bieber

*shoutout





E|-------------9--10-12-10-9-------------10-10-
B|--12----12------------------12-10----------
G|-----11-------------------------------12-------
D|-----------------------------------------
A|-----------------------------------------
E|-----------------------------------------


E|--10----10----10----10-12-12-9--
B|-----10----10----10-------------
G|--------------------------------
D|--------------------------------
A|--------------------------------
E|--------------------------------


E|------------9--10-12-10-9-----------10-10h12-10-
B|--12----12----------------12-10----------------
G|-----11----------------------------12-------------
D|-----------------------------------------------
A|-----------------------------------------------
E|-----------------------------------------------



E|--10----10----10----10-12-12-9--
B|-----10----10----10-------------
G|--------------------------------
D|--------------------------------
A|--------------------------------
E|--------------------------------


OH YEAHHHH
E|-----------
B|--10\12-12-
G|-----------
D|-----------
A|-----------
E|-----------


E|-------------------9--10-9--10-9-----
B|--12-12-12-12------------------12-
G|--------------------------------
D|--------------------------------
A|--------------------------------
E|--------------------------------


E|--------------9--10-9--10-9--10-12----
B|--12-12-12---------------------------10-
G|-----------------------------------
D|-----------------------------------
A|-----------------------------------
E|-----------------------------------



E|-----------------10-9--10-9--10-12-12-9--
B|--10-10-10-10-------------------------
G|--------------------------------------
D|--------------------------------------
A|--------------------------------------
E|--------------------------------------



OH YEAHHHH
E|-----------
B|--10\12-12-
G|-----------
D|-----------
A|-----------
E|-----------

E|-------------------9--10-9--10-9-----
B|--12-12-12-12--------------------12-
G|--------------------------------
D|--------------------------------
A|--------------------------------
E|--------------------------------


E|-------------9--10-9--10-9--10-12----
B|--12-12-12--------------------------10-
G|-----------------------------------
D|-----------------------------------
A|-----------------------------------
E|-----------------------------------



E|-----------------10-9--10-9--10-12-12-9--
B|--10-10-10-10-------------------------
G|--------------------------------------
D|--------------------------------------
A|--------------------------------------
E|--------------------------------------


DESPACITO.........................

E|---9\10-9--------
B|-----------12----
G|--------------11-
D|-----------------
A|-----------------
E|-----------------


E|--------------------------------------
B|--------------------12-12-12-12-10-12----
G|--11-11-11-11-11-----------------------12-
D|--------------------------------------
A|--------------------------------------
E|--------------------------------------


E|--------------------------------------9--10----
B|----------------------12-12-12-12---------10-
G|--12-12-12-12-12----------------------
D|--------------------------------------
A|--------------------------------------
E|--------------------------------------



E|---------------------10-10-10-10-12-12-9--
B|--10-10-10-10-10----------------------
G|--------------------------------------
D|--------------------------------------
A|--------------------------------------
E|--------------------------------------



DESPACITO.........................

E|---9\10-9--------
B|-----------12----
G|--------------11-
D|-----------------
A|-----------------
E|-----------------


E|--------------------------------------
B|----------------------12-12-12-12-10-12----
G|--11-11-11-11-11--------------------------12-
D|--------------------------------------
A|--------------------------------------
E|--------------------------------------



E|--------------------------------------9--10----
B|---------------------12-12-12-12----------10-
G|--12-12-12-12-12----------------------
D|--------------------------------------
A|--------------------------------------
E|--------------------------------------



E|---------------------10-10-10-10-12-12-9--
B|--10-10-10-10-10----------------------
G|--------------------------------------
D|--------------------------------------
A|--------------------------------------
E|--------------------------------------


\=Slide
/=Slide Back
h=Hmmer

for complete understanding please watch my tutorial video.
if you have any doubt/suggestion please ask in comment section below.

NOTE-if any Mistake/Correction is there in above notes please let me know.

THANKS FOR YOUR VISIT..

www.facebook.com/fuzailxiddiqui
www.instagram.com/fuzail_xiddiqui








Comments

  1. Good thanks for writing tabs plzz keep writing tabs with every song

    ReplyDelete
  2. I want the tabs of let me love you.....plz

    ReplyDelete
  3. PLEASE GIVE ME SHAPE OF YOU GUITAR TABS

    ReplyDelete
    Replies
    1. Good morning I am writing to express my gratitude for your help and support you in the morning and I will send you a copy of the tabs


      Delete
  4. Plz i want give me some sune shine notes

    ReplyDelete
  5. Bro thank u, for putting every tabs of famous songs ,ily brother,pls keep on putting tabs and pls its a request dont make the tabs paid,pls brother ♥️♥️♥️♥️

    ReplyDelete

Post a Comment

Populer Posts

O O JANE JANA GUITAR TABS SINGLE STRING AND MULTISTRING

Channa Mereya-Ae dil hai mushkil Tabs with intro