GUITAR MINI COURSE BOOK FOR ABSOLUTE BEGINNERS by FUXiNO | FX-MUSIC STORE

Image
GUITAR MINI COURSE FRO ABSOLUTE BEGINNERS
CLICK HERE

Guitar is very popular and most loved instrument of all time, everyone wants to learn guitar but only a few of them are able to do it, because people do not know how to solve the difficulties in the initial stage of learning, so they fed up and stop learning. But if you have a proper guidance you can easily learn the guitar. Many of you start learning guitar from YouTube videos but it takes a lot of time to find a good tutorials at one place. So, you should take this mini course and It will definitely give you all basics of guitar in one book which will save your time and you will feel confident.
About This Mini Guitar Book This book is made for those who has just started playing guitar, and I have shared all the basics in this one mini guitar course book with few tips for absolute beginners. It will save your time and you will feel confident after reading this book.
NOTE - I have covered only basic concepts in this book, it is not …

Tum Hi Ho Guitar Tabs/Lead Lesson | SINGLE STRING | Cover | Aashiqui2 | Arijit Singh | For Beginners

*shoutout


INTRO
E|--2--5--9--(5)*---10-5--7--4--          {(5)* is optional}
B|--------------------------
G|--------------------------
D|--------------------------
A|--------------------------
E|--------------------------
((((((((((REPEAT))))))))



HUM TERE BIN.......
E|--9--14-12-12-10-10-9--7--5--7--10-9--9--9--7--7--5--7--7--5--4--2--0--2--
B|--------------------------------------------------------------------------
G|--------------------------------------------------------------------------
D|--------------------------------------------------------------------------
A|--------------------------------------------------------------------------
E|--------------------------------------------------------------------------



TUJSE JUDA GAR.....
E|--9--14-12-12-10-10-9--7--5--7--10-9--9--9--7--7--5--7--7--5--4--2--0--2--
B|--------------------------------------------------------------------------
G|--------------------------------------------------------------------------
D|--------------------------------------------------------------------------
A|--------------------------------------------------------------------------
E|--------------------------------------------------------------------------


TUM HI HO KYUK....
E|--9--5--7--5--7--9--5--7--4--7--5--4--2--4--0--2--
B|--------------------------------------------------
G|--------------------------------------------------
D|--------------------------------------------------
A|--------------------------------------------------
E|--------------------------------------------------

JOINER/FILLER LEAD
E|--4--5--7--
B|-----------
G|-----------
D|-----------
A|-----------
E|-----------


TUM HI HO KYUK....
E|--9--5--7--5--7--9--5--7--4--7--5--4--2--4--0--2--
B|--------------------------------------------------
G|--------------------------------------------------
D|--------------------------------------------------
A|--------------------------------------------------
E|--------------------------------------------------

HUM TERE BIN.......
E|--9--14-12-12-10-10-9--7--5--7--10-9--9--9--7--7--5--7--7--5--4--2--0--2--
B|--------------------------------------------------------------------------
G|--------------------------------------------------------------------------
D|--------------------------------------------------------------------------
A|--------------------------------------------------------------------------
E|--------------------------------------------------------------------------

(LEAD)
E|--4--5--7--7--9--7--9--7--5--5--------7--9--7--9--7--5--4--5--7--5--7--5--4--2--4--2--
B|--------------------------------------------------------------------------------------
G|--------------------------------------------------------------------------------------
D|--------------------------------------------------------------------------------------
A|--------------------------------------------------------------------------------------
E|-----------------------------------------------------------------------------------
     (((((((( REPEAT))))))))


BRIDGE JOINER/FILLER LEAD(This lead is not in original song,its only to join bridge with song)
E|--2--2--4--4--5--5--7--7--9--9--10-10-12-12-12\14-
B|--------------------------------------------------
G|--------------------------------------------------
D|--------------------------------------------------
A|--------------------------------------------------
E|--------------------------------------------------



BRIDGE
TERE LIYE HI JIYA MAI
E|--14-14-12-12-14-14-16-16-12-12-9--
B|-----------------------------------
G|-----------------------------------
D|-----------------------------------
A|-----------------------------------
E|-----------------------------------

KHUD SE YU
E|--9--9--10-10-14-
B|-----------------
G|-----------------
D|-----------------
A|-----------------
E|-----------------

HI JIYA MAI
E|--14-16-16-12-12-9--
B|--------------------
G|--------------------
D|--------------------
A|--------------------
E|--------------------

TERI WAFA KO MAINE SAMBHALA
E|--10-10-9--10-9--10-9--5--5--10-9--
B|-----------------------------------
G|-----------------------------------
D|-----------------------------------
A|-----------------------------------
E|-----------------------------------

SARE GAMO KO DIL SE NIKALA
E|--10-10-9--10-9--12-10-9--7--7--9--9--
B|--------------------------------------
G|--------------------------------------
D|--------------------------------------
A|--------------------------------------
E|--------------------------------------


TERE SAATH JUDA HAI NASEEB---------------ADHOORA NA RAHA
E|-----0--2--2--4--4--2--4--4--10-10-9--9--7--9--9--14-13-14-14-9--9--7--7--5--7--5--4--
B|--------------------------------------------------------------------------------------
G|--------------------------------------------------------------------------------------
D|--------------------------------------------------------------------------------------
A|--------------------------------------------------------------------------------------
E|--------------------------------------------------------------------------------------


NOW REPEAT LINES ACCORDING TO SONG.



\=Slide
/=Slide Back
h=Hmmer
p=pull off

for complete understanding please watch my tutorial video.
if you have any doubt/suggestion please ask in comment section below.

NOTE-if any Mistake/Correction is there in above notes please let me know.

THANKS FOR YOUR VISIT..

www.facebook.com/fuzailxiddiqui
www.instagram.com/fuzail_xiddiqui


NOTE-IF YOU WANT TO ADD THESE NOTES ON YOUR PAGE/BLOG OR WEBSITE PLEASE INFORM ME ONCE.









Comments

  1. please make yeh raatein ye mousam

    ReplyDelete
  2. I really like it. Awesome!!

    ReplyDelete
  3. This comment has been removed by the author.

    ReplyDelete
  4. Superb I am a big fan of yours keep it up

    ReplyDelete
  5. Chain bhi mera dard bhi..cant find tabs for these lines

    ReplyDelete
  6. Thankyou it was very helpfull......

    ReplyDelete
  7. Thank you so much ap hamare liye itna sab Kuch Kar rha hai thanks once again

    ReplyDelete
  8. Can you describe me the pick up its downstroke or upstroke in intro 2595 10574 I have to getp downstroke it please reply ?

    ReplyDelete

Post a comment

Populer Posts

Despacito Guitar Tabs/Lead Lesson in Hindi | Luis Fonsi | Daddy Yankee | Justin Bieber

O O JANE JANA GUITAR TABS SINGLE STRING AND MULTISTRING

Tum Hi Aana Guitar Tabs with intro, Chords and Backing Track by Fuxino | Jubin Nautiyal | Marjaavaan | FxMusic