Mere Sapno Ki Raani Guitar Tabs/Lead Lesson | SINGLE STRING | Easy For Beginners | fuZaiL Xiddiqui

MERE SAPNO KI RANNI KAB AAEGI TU
E|--0--0--5--5--5--3---5\7--7--7--3--5--5--5--5--
B|-----------------------------------------------
G|-----------------------------------------------
D|-----------------------------------------------
A|-----------------------------------------------
E|-----------------------------------------------

AAAI RUTT MASTANI KAB AAEGI TU
E|--0--0--5--5--5--3---5\7--7--7--3--5--1--1--1--
B|-----------------------------------------------
G|-----------------------------------------------
D|-----------------------------------------------
A|-----------------------------------------------
E|-----------------------------------------------

BEETI JAAE ZINDAGANI KAB AAEGI TU
E|-0---0--5--5--5--3---5\7--7--7--5---7\8--8--8--8-----
B|-----------------------------------------------------
G|-----------------------------------------------------
D|-----------------------------------------------------
A|-----------------------------------------------------
E|-----------------------------------------------------


CHALI AAAA.. TU CHALI AA.
E|--12/7--7---8\10--8/7--5--
B|--------------------------
G|--------------------------
D|--------------------------
A|--------------------------
E|--------------------------

KYA HAI BHAROSA.....
E|--0--1--5--1--0--0--------
B|--------------------------
G|--------------------------
D|--------------------------
A|--------------------------
E|--------------------------

AASHIQ DIL KA...
E|-0--0--1--5--1--0--0--------
B|--------------------------
G|--------------------------
D|--------------------------
A|--------------------------
E|--------------------------


KAB KISI PE YE AA JAYE.....
E|--7--5--0--0--7---7\8--8--7--5--5--
B|-----------------------------------
G|-----------------------------------
D|-----------------------------------
A|-----------------------------------
E|-----------------------------------


AA GAYA TO BAHUT PACHTAEGI TU....
E|--5--7---8\10-10-10--7h/p8--5--3---7\8--7--5-----
B|-----------------------------------------------
G|-----------------------------------------------
D|-----------------------------------------------
A|-----------------------------------------------
E|-----------------------------------------------

                          (((((((REPEAT)))))))

MERE SAPNO KI RANNI KAB AAEGI TU
E|--0--0--5--5--5--3---5\7--7--7--3--5--5--5--5--
B|-----------------------------------------------
G|-----------------------------------------------
D|-----------------------------------------------
A|-----------------------------------------------
E|-----------------------------------------------

AAAI RUTT MASTANI KAB AAEGI TU
E|--0--0--5--5--5--3---5\7--7--7--3--5--1--1--1--
B|-----------------------------------------------
G|-----------------------------------------------
D|-----------------------------------------------
A|-----------------------------------------------
E|-----------------------------------------------

BEETI JAAE ZINDAGANI KAB AAEGI TU
E|-0---0--5--5--5--3---5\7--7--7--5---7\8--8--8--8-----
B|-----------------------------------------------------
G|-----------------------------------------------------
D|-----------------------------------------------------
A|-----------------------------------------------------
E|-----------------------------------------------------


CHALI AAAA..CHALI AA.
E|--12/7--7---8\10--8/7--5--
B|--------------------------
G|--------------------------
D|--------------------------
A|--------------------------
E|--------------------------


\=Slide
/=Slide Back
h=Hmmer
p=pull off

for complete understanding please watch my tutorial video.
if you have any doubt/suggestion please ask in comment section below.

NOTE-if any Mistake/Correction is there in above notes please let me know.

THANKS FOR YOUR VISIT..

www.facebook.com/fuzailxiddiqui
www.instagram.com/fuzail_xiddiqui






Comments

  1. Heads off ..can you also give the tutorial in SA re GA ma

    ReplyDelete
  2. Bhai yeline(BEETI JAAE ZINDAGANI KAB AAEGI TU
    E|-0---0--5--5--5--3---5\7--7--7--5---7\8--8--8--8-----) Sahi Nahi baji🤔

    ReplyDelete
    Replies
    1. KAB KISI PE YE AA JAYE.....
      E|--7--5--0--0--7---7\8--8--7--5--5-- Sahi Nahi Baja

      Delete
  3. In the sentence kya hai bharosa it's 3 not 5😅

    ReplyDelete

Post a Comment

Popular posts from this blog

Single String Guitar Songs Mashup - 10 Arijit Singh Songs | Easy One String Bollywood Hindi Songs Guitar Tabs

Tum Hi Aana Guitar Tabs with intro, Chords and Backing Track by Fuxino | Jubin Nautiyal | Marjaavaan | FxMusic

O Pata Nahi Ji Kaunsa Nasha Karta hai Guitar Tabs & Chords - Titliyan | Hardy Sandhu | Yaar Mera Titliyan Warga | Fx-Music | Fuxino