Tiger Zinda Hai Theme Guitar Tabs/Lead Lesson | Cover | Salman Khan | Katrina Kaif | Rock Acoustic Guitar Lead

SHAPES


(SHAPE-1)
E|--------------------------------
B|--------------------------------
G|--------------------------------
D|--------------------------------
A|-----4-----4-----4-----4-----5--
E|--2-----2-----2-----2-----2-----

Repeat shape-1 four times


(SHAPE-2)
E|--------------------------------
B|--------------------------------
G|-----6-----6-----6-----6-----7--
D|--4-----4-----4-----4-----4-----
A|--------------------------------
E|--------------------------------

E|--------------------------------
B|-----------------------------5--
G|-----6-----6-----6-----6--------
D|--4-----4-----4-----4-----4-----
A|--------------------------------
E|--------------------------------

Repeat Shape-2 twice.


LEAD


(LEAD PART-1)
E|-----------------------
B|-----------------------
G|-----------------------
D|--4(m)--4(m)--4--4--5--------
A|------------------------------7--4--
E|-----------------------


(LEAD PART-2)
E|--------------------
B|--------------------
G|--------------------
D|--4(m)--4(m)--4--4--5-----
A|----------------------------7--
E|--------------------


(LEAD PART-3)
E|-----------------------
B|-----------------------
G|-----------------------
D|--4(m)--4(m)--4--4--5--------
A|----------------------------7--4--
E|-----------------------


(LEAD PART-4)
E|-----------------------
B|-----------------------
G|-------------------------------6--
D|-----4(m)--4(m)--4--4--5-----
A|-----------------------
E|-----------------------

Repeat all lead part together twice.



(m)=Mute
\=Slide
/=Slide Back
h=Hmmer
p=pull off

for complete understanding please watch my tutorial video.
if you have any doubt/suggestion please ask in comment section below.

NOTE-if any Mistake/Correction is there in above notes please let me know.

THANKS FOR YOUR VISIT..

www.facebook.com/fuzailxiddiqui
www.instagram.com/fuzail_xiddiqui

NOTE-IF YOU WANT TO ADD THESE NOTES ON YOUR PAGE/BLOG OR WEBSITE PLEASE INFORM ME ONCE.



Comments

  1. Very Nice site and it is helpful info. also check out Tiger ZInda Hai Movie Box Office Collection, Please Dease visit at http://mtwiki.blogspot.in/2017/12/tiger-zinda-hai-movie-hit-or-flop-budget-box-office-collection-wiki.html

    ReplyDelete
  2. This comment has been removed by a blog administrator.

    ReplyDelete

Post a comment

Popular posts from this blog

Single String Guitar Songs Mashup - 10 Arijit Singh Songs | Easy One String Bollywood Hindi Songs Guitar Tabs

Tum Hi Aana Guitar Tabs with intro, Chords and Backing Track by Fuxino | Jubin Nautiyal | Marjaavaan | FxMusic

Tujhe Kitna Chahne Lage Hum Guitar Tabs Lesson w/ Cover & Chords | KABIR SINGH | FUXiNO