Posts

Showing posts from December, 2017

VAASTE GUITAR TABS,CHORDS with Backing Track by FUXiNO | FX-MUSIC

Image
WATCH MY VIDEO FOR BETTER UNDERSTANDING...

Chord Used - Capo on 5th Fret C,G,Am,F

STRUMMING - D-UDU-D-UDU-DD - (DU)*  Last (DU)* Stroke is filler
Backing Track is Available Below of This Post (Scroll Down)
TABS
SYMBOLS (/) Slide Down (\) Slide Up   (h) Hammer On   (p) Pull Off   (x) Muted

INTRO E|------------------------------------- B|--\6--6--6--6---6--6--6---6--6-- G|------------------------------------ D|------------------------------------- A|------------------------------------ E|------------------------------------

E|--------------------------------------- B|---6\8--8--8--8---8--8--8---8--8-- G|--------------------------------------- D|--------------------------------------- A|--------------------------------------- E|--------------------------------------- IT TAKES A-LOT OF TIME AND EFFORTS TO MAKE VIDEOS,BACKING TRACK AND THESE WRITTEN NOTES, SO IF YOU WANT TO ENCOURAGE ME YOU CAN BY DONATING ANYTHING (CLICK ON THIS PAYTM ICON) Donate with


E|---------------------------------------…

TERA ZIKR-DARSHAN RAVAL GUITAR TABS/NOTES

Image
INTRO
E|-----------------------------------
B|--13-12-13-12-10-12----10-12----10-
G|--------------------------12-------12----
D|-----------------------------------
A|-----------------------------------
E|-----------------------------------

E|-----------------------------------
B|--13-12-13-12-10-12----10-12----10-
G|--------------------------12-------12----
D|-----------------------------------
A|-----------------------------------
E|-----------------------------------



ABHI ABHI.......
E|------------------10-------------------------------------
B|--12-13-12-13----13-12-10-12---------10----------------
G|-------------------------------------12-12----10-12-10-9-----
D|----------------------------------------------------------------12-
A|-----------------------------------------------------
E|-----------------------------------------------------


KYA THI MERI.......
E|-------------------10-------------------------------------
B|--12--13-13-13----12h/p13-10-------------10----------------
G…

Surili Akhiyon Wale Guitar Tabs/Lead Lesson(intro) | Salman Khan | Veer

Image
PART-1

E|-----------7--------7-----------------
B|---7\9--9-----7--7-----5--5--4---5\7--
G|--------------------------------------
D|--------------------------------------
A|--------------------------------------
E|--------------------------------------



PART-2

E|--------
B|--5--7--
G|--------
D|--------
A|--------
E|--------

E|-----------7--------7-----------------
B|---7\9--9-----7--7-----5--5--4---5\7--
G|--------------------------------------
D|--------------------------------------
A|--------------------------------------
E|--------------------------------------



PART-3

E|--------
B|--0--0--
G|--------
D|--------
A|--------
E|--------

E|-----------7--------7-----------------
B|-----9--9-----7--7-----5--5--4---5\7--
G|--------------------------------------
D|--------------------------------------
A|--------------------------------------
E|--------------------------------------


PART-4

E|--------
B|--5--7--
G|--------
D|--------
A|--------
E|--------

E|-----------7--------7---------------…

Tere Naam Guitar Tabs/Lead | SINGLE STRING | Salman Khan

Image
PART-1

E|--0--1--3--5---3h/p5--3--3--
B|--------------------------
G|--------------------------
D|--------------------------
A|--------------------------
E|--------------------------


PART-2

E|--8--7---8\10-8---7/5--5--5--
B|-----------------------------
G|-----------------------------
D|-----------------------------
A|-----------------------------
E|-----------------------------


PART-3

E|--0--1--3--5---3\5--5--5--
B|--------------------------
G|--------------------------
D|--------------------------
A|--------------------------
E|--------------------------


PART-4

E|--8--7--5--3--3--5---3h/p5--1--0--
B|--------------------------------
G|--------------------------------
D|--------------------------------
A|--------------------------------
E|--------------------------------

\=Slide /=Slide Back h=Hmmer p=pull off b=bend
for complete understanding please watch my tutorial video. if you have any doubt/suggestion please ask in comment section below.
NOTE-if any Mistake/Correction is there in a…

Jingle Bells Guitar Tabs/Lead Lesson with Backing Track | SINGLE STRING | Easy Chritsmas Song on Guitar 2017 | Hindi

Image
intro
E|--9--9--7--7--9--9--7--7--9--9--7--7--9--9--7--7--9--9--7--7-------9--
B|-----------------------------------------------------------------
G|-----------------------------------------------------------------
D|-----------------------------------------------------------------
A|-----------------------------------------------------------------
E|-----------------------------------------------------------------





E|--0--9--7--5--0--
B|-----------------
G|-----------------
D|-----------------
A|-----------------
E|-----------------




E|--0--0--0--9--7--5--2--
B|-----------------------
G|-----------------------
D|-----------------------
A|-----------------------
E|-----------------------


E|-----2--10-9--7--4--
B|--------------------
G|--------------------
D|--------------------
A|--------------------
E|--------------------


E|-----12-12-10-7--9--
B|--------------------
G|--------------------
D|--------------------
A|--------------------
E|--------------------


E|--0--9--7--5--0--
B|-----…

TERI ANKHO SE-SANAM BAND

Image
CHORDS USED

E,A,B,C#m


CAPO ON 4TH

C,F,G,Am




NORMAL STRUMMING WITHOUT HEARTBEAT(PRECUSSION)

D-DU-D-U-DD-D-U-D




STRUMMING WITH HEARTBEAT(STROKES WITH ' MARK WILL BE PLAYED WITH DRUM KICK ON GUITAR)

D'-D'U-D'-U-D'D'-D'-U-D'




EASY STRUMMING FOR REMAINING SONG
DD-UU-DU


Dil Diyan Gallan Guitar Tabs/lead/Notes | Tiger Zinda Hai | Atif Aslam

Image
Kachchi doriyon doriyon doriyon se E|--------------------------------------------
B|--------7--7--7-----8--8--8--7--7-----------
G|--7--9-----------9-----------------7--9--9--
D|--------------------------------------------
A|--------------------------------------------
E|--------------------------------------------

Mainu tu baandh le E|-----------------------
B|--7--------------------
G|-----9--7-----7--9--7--
D|-----------9-----------
A|-----------------------
E|-----------------------


Pakki yaariyon yaariyon yaariyon mein E|--------------------------------------------
B|--------7--7--7-----8--8--8--7--7-----------
G|--7--9-----------9-----------------7--9--9--
D|--------------------------------------------
A|--------------------------------------------
E|--------------------------------------------

Aunde na faasle E|-----------------------
B|--7--------------------
G|-----9--7-----7--9--7--
D|-----------9-----------
A|-----------------------
E|-----------------------


Eh narazgi kaagzi saari teri E|--------…

PAL Kaisa PAL Guitar Chords Lesson | Arijit Singh | Monsoon Shootout | Open Chords

Image
CHORDS USED

Em,A,C,D,G

STRUMMINGS

1-DUC-DUC-D  

2-D-D-D-D.......(FOR BRIDGE)

3-D-UDU-D-UDU-DU (EAY STRUMMING FOR BEGINNERS)

4-Filler=DU

Note--Please add filler/joiner while changing chords (FILLER=DU)



INTRO 

arpagios


Em-63231234 C-53231234 D-43231234 G-63231234
(Em)Pal kaisa pal
Pal mein (A)jaaye phisal
Chaah ke (C)bhi pakad paaun (D)na 

(REPEAT)
(Em)Milke juda ho (A)na paayega dil
Dil ko (C)main samajh paaun (D)na Hmmmmm....(G)khwahish hai itni si (C)yaar
(G)Der tak rukna abki (C)baar
(G)Pyaar ke lamhe ho (C)hazaar
Unhi mein (D)sadiyaan jee lunga main CHORUS

DHOOM THEME GUITAR TABS LESSON

Image
PART1
E|--------11-9--11-9--11----9--11-9--------
B|---4\9-----------------12----------12-10-
G|-----------------------------------------
D|-----------------------------------------
A|-----------------------------------------
E|-----------------------------------------



PART2
E|-----11-9--11-9--11----9--11--9(b)
B|--9-----------------12----------
G|--------------------------------
D|--------------------------------
A|--------------------------------
E|--------------------------------


PART3
E|----------11-9--11-9--11----9--11-9--------
B|-------9--------------------12----------12-10-
G|-----------------------------------------
D|-----------------------------------------
A|-----------------------------------------
E|-----------------------------------------


PART4
E|-----------------------------
B|-----9--10-12-10-9-----10-9--
G|--11----------------11-------
D|-----------------------------
A|-----------------------------
E|-----------------------------


\=Slide
/=Slide Back
h=Hmmer
p=pull off