DHOOM THEME GUITAR TABS LESSON

PART1
E|--------11-9--11-9--11----9--11-9--------
B|---4\9-----------------12----------12-10-
G|-----------------------------------------
D|-----------------------------------------
A|-----------------------------------------
E|-----------------------------------------



PART2
E|-----11-9--11-9--11----9--11--9(b)
B|--9-----------------12----------
G|--------------------------------
D|--------------------------------
A|--------------------------------
E|--------------------------------


PART3
E|----------11-9--11-9--11----9--11-9--------
B|-------9--------------------12----------12-10-
G|-----------------------------------------
D|-----------------------------------------
A|-----------------------------------------
E|-----------------------------------------


PART4
E|-----------------------------
B|-----9--10-12-10-9-----10-9--
G|--11----------------11-------
D|-----------------------------
A|-----------------------------
E|-----------------------------


\=Slide
/=Slide Back
h=Hmmer
p=pull off
b=bend

for complete understanding please watch my tutorial video.
if you have any doubt/suggestion please ask in comment section below.

NOTE-if any Mistake/Correction is there in above notes please let me know.

THANKS FOR YOUR VISIT..

www.facebook.com/fuzailxiddiqui
www.instagram.com/fuzail_xiddiqui





NOTE-IF YOU WANT TO ADD THESE NOTES ON YOUR PAGE/BLOG OR WEBSITE PLEASE INFORM ME ONCE.


Comments

  1. Intro part is missing ,
    i think

    ReplyDelete
  2. Ab jisko Nahi milta usme hum kya Kar sakte hai Fujail ji Sab kuch ache se Diya rakkha hai

    ReplyDelete
  3. Sound proper nhi aa rha jese apke aa rha h

    ReplyDelete

Post a Comment

Popular posts from this blog

Single String Guitar Songs Mashup - 10 Arijit Singh Songs | Easy One String Bollywood Hindi Songs Guitar Tabs

Tum Hi Aana Guitar Tabs with intro, Chords and Backing Track by Fuxino | Jubin Nautiyal | Marjaavaan | FxMusic

O Pata Nahi Ji Kaunsa Nasha Karta hai Guitar Tabs & Chords - Titliyan | Hardy Sandhu | Yaar Mera Titliyan Warga | Fx-Music | Fuxino