Dil Diyan Gallan Guitar Tabs/lead/Notes | Tiger Zinda Hai | Atif Aslam

Kachchi doriyon doriyon doriyon se
E|--------------------------------------------
B|--------7--7--7-----8--8--8--7--7-----------
G|--7--9-----------9-----------------7--9--9--
D|--------------------------------------------
A|--------------------------------------------
E|--------------------------------------------

Mainu tu baandh le
E|-----------------------
B|--7--------------------
G|-----9--7-----7--9--7--
D|-----------9-----------
A|-----------------------
E|-----------------------


Pakki yaariyon yaariyon yaariyon mein
E|--------------------------------------------
B|--------7--7--7-----8--8--8--7--7-----------
G|--7--9-----------9-----------------7--9--9--
D|--------------------------------------------
A|--------------------------------------------
E|--------------------------------------------

Aunde na faasle
E|-----------------------
B|--7--------------------
G|-----9--7-----7--9--7--
D|-----------9-----------
A|-----------------------
E|-----------------------


Eh narazgi kaagzi saari teri
E|--------7--7--7-----9--9--9--------------------
B|--7--8-----------10----------10-10p8--8--10-7--
G|-----------------------------------------------
D|-----------------------------------------------
A|-----------------------------------------------
E|-----------------------------------------------



Mere sohneya sun lai meri
E|--------7--7--7-----9--9--9--------------
B|--7--8-----------10----------10--7h/p8-----
G|----------------------------------------------9--
D|-----------------------------------------
A|-----------------------------------------
E|-----------------------------------------


Dil diyan gallan

E|-----------------------
B|------7h8-----7--8--10-
G|-----------9-----------
D|-----------------------
A|-----------------------
E|-----------------------



Karange naal naal beh ke
E|--------------10p7--7--7--10p7--------
B|--7--7--8--8--------------------10-8--
G|--------------------------------------
D|--------------------------------------
A|--------------------------------------
E|--------------------------------------

Akh naal akh nu mila ke
E|--10------------------7--------
B|-----8--8--8--8--10----10-10-
G|-----------------------------
D|-----------------------------
A|-----------------------------
E|-----------------------------

Dil diyan gallan 
E|-----------------------
B|------7h8-----7--8--10-
G|-----------9-----------
D|-----------------------
A|-----------------------
E|-----------------------


Karange roz roz beh ke
E|--------------10p7--7--7--10p7--------
B|--7--7--8--8--------------------10-8--
G|--------------------------------------
D|--------------------------------------
A|--------------------------------------
E|--------------------------------------


Sachiyan mohabbtan nibha ke
E|--10-------------------7--------
B|-----8--8--8--8--10----10-10-
G|-----------------------------
D|-----------------------------
A|-----------------------------
E|-----------------------------
Sataye mainu kyun
E|-------------------14-12h/p14-10-
B|--10-10-12-10-------------
G|--------------------------
D|--------------------------
A|--------------------------
E|--------------------------

Dikhaye mainu kyun
E|------------------14-12h14-10-
B|--10-10-12-10-------------
G|--------------------------
D|--------------------------
A|--------------------------
E|--------------------------



Aivein jhoothi moothi Russ ke russa ke
E|--10-12-15-15-14-14-10-10-10-------------
B|-----------------------------------------12-10h12--10h12--10-
G|-----------------------------------------
D|-----------------------------------------
A|-----------------------------------------
E|-----------------------------------------



Dil diyan gallan
E|-----------------------
B|------7h8-----7--8--10-
G|-----------9-----------
D|-----------------------
A|-----------------------
E|-----------------------


Karange naal naal beh ke
E|--------------10p7--7--7--10p7--------
B|--7--7--8--8--------------------10-8--
G|--------------------------------------
D|--------------------------------------
A|--------------------------------------
E|--------------------------------------

Akh naal akh nu mila ke
E|--10-------------------7--------
B|-----8--8--8--8--10----10-10-
G|-----------------------------
D|-----------------------------
A|-----------------------------
E|-----------------------------
\=Slide
/=Slide Back
h=Hmmer
p=pull off
b=bend

for complete understanding please watch my tutorial video.
if you have any doubt/suggestion please ask in comment section below.

NOTE-if any Mistake/Correction is there in above notes please let me know.

THANKS FOR YOUR VISIT..








NOTE-IF YOU WANT TO ADD THESE NOTES ON YOUR PAGE/BLOG OR WEBSITE PLEASE INFORM ME ONCE.
WARNING-COPY PASTE IS PROHIBTED.


DIL DIYAN GALLAN GUITAR TABS ON SINGLE STRING (BELOW VIDEO)



Comments

  1. Thanks for sharing helpful post for those who are interested for learning guitar.
    Everest Trek Bangalore

    ReplyDelete
  2. Pls do the song guitar sikhda by jassi gill

    ReplyDelete
  3. Good work sir ji 😘😘😘

    ReplyDelete
  4. So useful post. Looking for Everest base camp trek from Mumbai. Feel free to contact us, we have best budget offer.

    ReplyDelete
  5. This comment has been removed by a blog administrator.

    ReplyDelete
  6. This comment has been removed by a blog administrator.

    ReplyDelete
  7. I love what you guys tend to be up too. This sort of clever work and coverage! Keep up the fantastic works guys I've added you guys to our blogroll. bass guitar queensland

    ReplyDelete
  8. Dil diyan gallan cords sir plzz

    ReplyDelete
  9. This comment has been removed by the author.

    ReplyDelete
  10. sir why we cant do copy paste you are so famous if we message you many message will be left so what to do

    ReplyDelete

Post a comment

Popular posts from this blog

Single String Guitar Songs Mashup - 10 Arijit Singh Songs | Easy One String Bollywood Hindi Songs Guitar Tabs

Tum Hi Aana Guitar Tabs with intro, Chords and Backing Track by Fuxino | Jubin Nautiyal | Marjaavaan | FxMusic

Tujhe Kitna Chahne Lage Hum Guitar Tabs Lesson w/ Cover & Chords | KABIR SINGH | FUXiNO