Jingle Bells Guitar Tabs/Lead Lesson on SINGLE STRING | Easy Chritsmas Song on Guitar | Hindi

intro
E|--9--9--7--7--9--9--7--7--9--9--7--7--9--9--7--7--9--9--7--7-------9--
B|-----------------------------------------------------------------
G|-----------------------------------------------------------------
D|-----------------------------------------------------------------
A|-----------------------------------------------------------------
E|-----------------------------------------------------------------





E|--0--9--7--5--0--
B|-----------------
G|-----------------
D|-----------------
A|-----------------
E|-----------------




E|--0--0--0--9--7--5--2--
B|-----------------------
G|-----------------------
D|-----------------------
A|-----------------------
E|-----------------------


E|-----2--10-9--7--4--
B|--------------------
G|--------------------
D|--------------------
A|--------------------
E|--------------------


E|-----12-12-10-7--9--
B|--------------------
G|--------------------
D|--------------------
A|--------------------
E|--------------------


E|--0--9--7--5--0--
B|-----------------
G|-----------------
D|-----------------
A|-----------------
E|-----------------



E|--0--0--9--7--5--2--
B|-----------------------
G|-----------------------
D|-----------------------
A|-----------------------
E|-----------------------



E|--2--2--10-9--7--12-12-12-12-14-12-10-7--9--
B|--------------------------------------------
G|--------------------------------------------
D|--------------------------------------------
A|--------------------------------------------
E|--------------------------------------------




E|--9--9--9--9--9--9--9--12-5--7--9--
B|-----------------------------------
G|-----------------------------------
D|-----------------------------------
A|-----------------------------------
E|-----------------------------------



E|-----10-10-10-10-9--9--9--9--7--7--7--9--7--
B|--------------------------------------------
G|--------------------------------------------
D|--------------------------------------------
A|--------------------------------------------
E|--------------------------------------------


E|-----12-
B|--------
G|--------
D|--------
A|--------
E|--------




E|--9--9--9--9--9--9--9--12-5--7--9--
B|-----------------------------------
G|-----------------------------------
D|-----------------------------------
A|-----------------------------------
E|-----------------------------------



E|-----10-10-10-10-9--9--9--12-12-10-7--5--
B|-----------------------------------------
G|-----------------------------------------
D|-----------------------------------------
A|-----------------------------------------
E|-----------------------------------------










\=Slide
/=Slide Back
h=Hmmer
p=pull off
b=bend

for complete understanding please watch my tutorial video.
if you have any doubt/suggestion please ask in comment section below.

NOTE-if any Mistake/Correction is there in above notes please let me know.

THANKS FOR YOUR VISIT..






Comments

Post a Comment

Popular posts from this blog

Single String Guitar Songs Mashup - 10 Arijit Singh Songs | Easy One String Bollywood Hindi Songs Guitar Tabs

Tum Hi Aana Guitar Tabs with intro, Chords and Backing Track by Fuxino | Jubin Nautiyal | Marjaavaan | FxMusic

O Pata Nahi Ji Kaunsa Nasha Karta hai Guitar Tabs & Chords - Titliyan | Hardy Sandhu | Yaar Mera Titliyan Warga | Fx-Music | Fuxino