Surili Akhiyon Wale Guitar Tabs/Lead Lesson(intro) | Salman Khan | Veer

PART-1

E|-----------7--------7-----------------
B|---7\9--9-----7--7-----5--5--4---5\7--
G|--------------------------------------
D|--------------------------------------
A|--------------------------------------
E|--------------------------------------



PART-2

E|--------
B|--5--7--
G|--------
D|--------
A|--------
E|--------

E|-----------7--------7-----------------
B|---7\9--9-----7--7-----5--5--4---5\7--
G|--------------------------------------
D|--------------------------------------
A|--------------------------------------
E|--------------------------------------



PART-3

E|--------
B|--0--0--
G|--------
D|--------
A|--------
E|--------

E|-----------7--------7-----------------
B|-----9--9-----7--7-----5--5--4---5\7--
G|--------------------------------------
D|--------------------------------------
A|--------------------------------------
E|--------------------------------------


PART-4

E|--------
B|--5--7--
G|--------
D|--------
A|--------
E|--------

E|-----------7--------7-----------------
B|---7\9--9-----7--7-----5--5--4---5\7--
G|--------------------------------------
D|--------------------------------------
A|--------------------------------------
E|--------------------------------------


\=Slide
/=Slide Back
h=Hmmer
p=pull off
b=bend

for complete understanding please watch my tutorial video.
if you have any doubt/suggestion please ask in comment section below.

NOTE-if any Mistake/Correction is there in above notes please let me know.

THANKS FOR YOUR VISIT..



NOTE-IF YOU WANT TO ADD THESE NOTES ON YOUR PAGE/BLOG OR WEBSITE PLEASE INFORM ME ONCE.

Get in touch with me (Facebook)
https://www.facebook.com/FuzailXiddiqui/


INSTAGRAM
https://www.instagram.com/fuzail_xiddiqui/

TWITTER
https://twitter.com/fuzail_xiddi


YouTube link (Do share it)
http://www.youtube.com/c/fuZaiLXiddiqui






Comments

Popular posts from this blog

Single String Guitar Songs Mashup - 10 Arijit Singh Songs | Easy One String Bollywood Hindi Songs Guitar Tabs

Tum Hi Aana Guitar Tabs with intro, Chords and Backing Track by Fuxino | Jubin Nautiyal | Marjaavaan | FxMusic

Tujhe Kitna Chahne Lage Hum Guitar Tabs Lesson w/ Cover & Chords | KABIR SINGH | FUXiNO