TERA ZIKR-DARSHAN RAVAL GUITAR TABS/NOTES

INTRO
E|-----------------------------------
B|--13-12-13-12-10-12----10-12----10-
G|--------------------------12-------12----
D|-----------------------------------
A|-----------------------------------
E|-----------------------------------

E|-----------------------------------
B|--13-12-13-12-10-12----10-12----10-
G|--------------------------12-------12----
D|-----------------------------------
A|-----------------------------------
E|-----------------------------------



ABHI ABHI.......
E|------------------10-------------------------------------
B|--12-13-12-13----13-12-10-12---------10----------------
G|-------------------------------------12-12----10-12-10-9-----
D|----------------------------------------------------------------12-
A|-----------------------------------------------------
E|-----------------------------------------------------


KYA THI MERI.......
E|-------------------10-------------------------------------
B|--12--13-13-13----12h/p13-10-------------10----------------
G|-------------------------------------12-12-12----10-12-10-9-----
D|---------------------------------------------------------------------12-
A|-----------------------------------------------------
E|-----------------------------------------------------


MUJHE KHONE KE.....
E|--------------------12-10---------10-------------------------------------10-------
B|--10-10-10---10--------13-12------13-12-10----10-10-13-12-13------13-12-
G|---------------------------------------------------12-------------------------
D|-----------------------------------------------------------------
A|-----------------------------------------------------------------
E|-----------------------------------------------------------------



FIR DEKHNA....
E|--------------------12-10----------10-10-10--------------------------------------10-------
B|--10-10-10---10---------13-12---------------13-12-10-----10-10-13-12-13----13-12-
G|--------------------------------------------------------------12-------------------------
D|-----------------------------------------------------------------------
A|-----------------------------------------------------------------------
E|-----------------------------------------------------------------------



MUJHE KHONE KE.....
E|--------------------12-10---------10-------------------------------------10-------
B|--10-10-10---10--------13-12------13-12-10----10-10-13-12-13------13-12-
G|---------------------------------------------------12-------------------------
D|-----------------------------------------------------------------
A|-----------------------------------------------------------------
E|-----------------------------------------------------------------




FIR DEKHNA(HIGH NOTES)
E|--15-13-12-12----12-12-------------------------------------------------
B|------------------15---------15--15-15-15---13-12--------------------13-12-13-15-13-12-
G|-----------------------------------------------------------14-12--14-14-------------------
D|-----------------------------------------------------------------------
A|-----------------------------------------------------------------------
E|-----------------------------------------------------------------------

\=Slide
/=Slide Back
h=Hmmer
p=pull off
b=bend

for complete understanding please watch my tutorial video.
if you have any doubt/suggestion please ask in comment section below.

NOTE-if any Mistake/Correction is there in above notes please let me know.

THANKS FOR YOUR VISIT..



NOTE-IF YOU WANT TO ADD THESE NOTES ON YOUR PAGE/BLOG OR WEBSITE PLEASE INFORM ME ONCE.

Get in touch with me (Facebook)
https://www.facebook.com/FuzailXiddiqui/


INSTAGRAM
https://www.instagram.com/fuzail_xiddiqui/

TWITTER
https://twitter.com/fuzail_xiddi


YouTube link (Do share it)
http://www.youtube.com/c/fuZaiLXiddiqui





Comments

  1. Palace video on top then post cords..

    ReplyDelete
  2. Plz prov8de the lead tabs of the full song spcly the line " tera zikr jisme hua na ho mere pas aisa lamha na ho"

    ReplyDelete
    Replies
    1. Exactly, even I am also counting for it...!

      Delete
  3. Mulaqatein adhuri rahi line ka tab kaha hai

    ReplyDelete
  4. Thanks for sharing. For more Hindi Songs Lyrics you can visit here.

    ReplyDelete

Post a Comment

Popular posts from this blog

Single String Guitar Songs Mashup - 10 Arijit Singh Songs | Easy One String Bollywood Hindi Songs Guitar Tabs

Tum Hi Aana Guitar Tabs with intro, Chords and Backing Track by Fuxino | Jubin Nautiyal | Marjaavaan | FxMusic

O Pata Nahi Ji Kaunsa Nasha Karta hai Guitar Tabs & Chords - Titliyan | Hardy Sandhu | Yaar Mera Titliyan Warga | Fx-Music | Fuxino