Tere Naam Guitar Tabs/Lead | SINGLE STRING | Salman Khan

PART-1

E|--0--1--3--5---3h/p5--3--3--
B|--------------------------
G|--------------------------
D|--------------------------
A|--------------------------
E|--------------------------


PART-2

E|--8--7---8\10-8---7/5--5--5--
B|-----------------------------
G|-----------------------------
D|-----------------------------
A|-----------------------------
E|-----------------------------


PART-3

E|--0--1--3--5---3\5--5--5--
B|--------------------------
G|--------------------------
D|--------------------------
A|--------------------------
E|--------------------------


PART-4

E|--8--7--5--3--3--5---3h/p5--1--0--
B|--------------------------------
G|--------------------------------
D|--------------------------------
A|--------------------------------
E|--------------------------------

\=Slide
/=Slide Back
h=Hmmer
p=pull off
b=bend

for complete understanding please watch my tutorial video.
if you have any doubt/suggestion please ask in comment section below.

NOTE-if any Mistake/Correction is there in above notes please let me know.

THANKS FOR YOUR VISIT..



NOTE-IF YOU WANT TO ADD THESE NOTES ON YOUR PAGE/BLOG OR WEBSITE PLEASE INFORM ME ONCE.

Get in touch with me (Facebook)
https://www.facebook.com/FuzailXiddiqui/


INSTAGRAM
https://www.instagram.com/fuzail_xiddiqui/

TWITTER
https://twitter.com/fuzail_xiddi


YouTube link (Do share it)
http://www.youtube.com/c/fuZaiLXiddiqui




Comments

  1. Sir Please made lesson of song Zara Zara from RHTDM movie.. It will be grt help if you provide the tabs as well for this..

    ReplyDelete
  2. Sir I want to learn guitar from you, would you like to teach me?

    ReplyDelete

Post a Comment

Popular posts from this blog

Tum Hi Aana Guitar Tabs with intro, Chords and Backing Track by Fuxino | Jubin Nautiyal | Marjaavaan | FxMusic

Happy Birthday Guitar Tabs on Single String for Beginners | Written Notes | Fx-Music

Rata Lambiya Guitar Tabs & Chords - Easy Hindi Guita Songs For Beginners | Shershah Songs | Jubin Nautiyal