Posts

Showing posts from 2018

VAASTE GUITAR TABS,CHORDS with Backing Track by FUXiNO | FX-MUSIC

Image
WATCH MY VIDEO FOR BETTER UNDERSTANDING...

Chord Used - Capo on 5th Fret C,G,Am,F

STRUMMING - D-UDU-D-UDU-DD - (DU)*  Last (DU)* Stroke is filler
Backing Track is Available Below of This Post (Scroll Down)
TABS
SYMBOLS (/) Slide Down (\) Slide Up   (h) Hammer On   (p) Pull Off   (x) Muted

INTRO E|------------------------------------- B|--\6--6--6--6---6--6--6---6--6-- G|------------------------------------ D|------------------------------------- A|------------------------------------ E|------------------------------------

E|--------------------------------------- B|---6\8--8--8--8---8--8--8---8--8-- G|--------------------------------------- D|--------------------------------------- A|--------------------------------------- E|--------------------------------------- IT TAKES A-LOT OF TIME AND EFFORTS TO MAKE VIDEOS,BACKING TRACK AND THESE WRITTEN NOTES, SO IF YOU WANT TO ENCOURAGE ME YOU CAN BY DONATING ANYTHING (CLICK ON THIS PAYTM ICON) Donate with


E|---------------------------------------…

Fx-TShirt | FUXiNO | Merchandise

Image
FUXiNO's (Fx) Merchandise

DESCRIPTION Type : Round Neck Sleeve : Half Fabric : Cotton Neck Type : Round Size: M (38cm) Colour : Black Logo Colour : White Back : Plain Shipping : Free (*Free Shipping in INDIA)
PRICE : Rs/- 399.

(SOLD OUT)


Just Wear it an Be aFXian and Post a Picture on Your Social Media Pages with #FXian and #FUXiNO and tag me to get a chance to take a shoutout on FUXiNO's official Pages.


Note- if you have any Query Let Me Know in Comment Section Below.


JUST CHECK OUT THIS VIDEO TO GET AN IDEA HOW THIS T-SHIRT LOOKS


ZARA ZARA BEHAKTA HAI GUITAR TABS/NOTES By FuZaiL Xiddiqui | FxMuSic | RHTDM

Image
CHORDS USED : 

Bm,F#m,Em,D,F#,G,A



TABS
(NOTE;i have given only notes below,please watch my video to make it more beautiful by using few techniques e.g BENDS,SLIDES HAMMER n PULL OFF etc)


TADPAYE MUJHE.....
--------------------
------7---7---7-----
--7-9---9---9---7-6-
9-------------------
--------------------
--------------------


 ----------------------  ------7---------------  --9-9---7-7-7-6-7-6---  -------------------------9-  ----------------------  ----------------------

 ----------------------  ------------------7-8-----  --9-9-9-9-6-9--------9-11  9---------------------  ----------------------  ----------------------
--------------------
------7---7---7-----
--7-9---9---9---7-6-
9-------------------
--------------------
--------------------


 ----------------------  ---------7---------------  7--9-9---7-7-7-6-7-6--- -------------------------9-  ----------------------  ----------------------
 --------------------  ----------8-7-------  --9-9-9-9-----9-9-11  9-------------------  --…

Tune Mere Jana "Emptiness" Guitar Tabs & Chords | Bakicng Track | FuZaiL Xiddiqui | FX MUSIC

Image
CHORDS - F,Am,A#,C

STRUMMING - DD-UU-DUD



TABS
(watch my video for better understanding)

E|------------
B|------------
G| -----5---5-
D| 2\7---7---
A|-----------
E|-------------


 ------------  --------3---  ----2-5---5-  3-3---------  ------------  ------------

 ------------------------  ------------------------  --5-3-2-------2-----2---  3-------5-3-5---5-5---5-  ------------------------  ------------------------

 --------
 --------
 --5---5-
 7---7---
 --------
 --------


 ------------  --------3---  ----2-5---5-  3-3---------  ------------  ------------

 ------------------------  ------------------------  --5-3-2-------2-----2---  3-------5-3-5---5-5---5-  ------------------------  ------------------------

 ------------  5-5-6-5-----  ------------7-5-  ------------  ------------  ------------

 ------------  ----6-5-----  --5-----7-5-  7-----------  ------------  ------------
 ---------------------  ----8\10-6-6--8\10--8-6-5-  5-5-----------7---------  ----------------------  --------…

Safar Bhuwan Bam Guitar Chords and Tabs(Notes) By FuZaiL Xiddiqui | FxMusic

Image
CHORDS
Dm,Am,C,G,A#,A,F   (Chords to play full song)

TABS (with Chord Progressions)
Safar kaisa hai ye safar
(Dm>Am>C>G)
E|--------------------------------
B|------------------5--5------------
G|--5--5\7--7--7---------7--5--------
D|--------------------------------------7--5--
A|--------------------------------
E|--------------------------------


Manzilo ki na hai koi khabar
(Dm>Am>C>G)
E|--------------------------------
B|--------------------5--5------------
G|-5-5--5\7--7--7---------7--5--------
D|--------------------------------------7--5--
A|--------------------------------
E|--------------------------------

Safar kaisa hai ye safar
(Dm>Am>C>G)
E|--------------------------------
B|------------------5--5------------
G|--5--5\7--7--7---------7--5--------
D|--------------------------------------7--5--
A|--------------------------------
E|--------------------------------


Manzilo ki na hai koi khabar
(Dm>Am>C>G)
E|--------------------------------
B|-----------…

Dekhte Dekhte Guitar Tabs/Notes With Chords | Atif Aslam | FuZaiL Xiddiqui

Image
E|--------------------
B|--8--11-10-8-------8--
G|-----------------10----
D|--------------------
A|--------------------
E|--------------------

E|--------------------------
B|--8--11-10-8-----8--------
G|------------------10----10-7--
D|--------------------------
A|--------------------------
E|--------------------------

E|--------------------------------------
B|----------------10-10-8--------------10-10-8--
G|--7--8--10----------------7--8--10----------
D|--------------------------------------
A|--------------------------------------
E|--------------------------------------

E|--------------------
B|--8--11-10-8-----8--
G|------------------10----
D|--------------------
A|--------------------
E|--------------------

E|--------------------------
B|--8--11-10-8-----8--------
G|------------------10----10-7--
D|--------------------------
A|--------------------------
E|--------------------------

E|--------------------------------------
B|----------------10-10-8--------------10-10-8--

DHADAK Guitar Tabs/Notes By FuZaiL Xiddiqui | Fx-Music | ELECTRIC Guitar

Image
CHORDS USED IN MY VIDEO  {refer my video for better understanding}

Capo on 5th fret : Am,Em,G,C,Dm,E   {Transformed}

Strumming : D                                 {Simply Down Stroke}
Strumming : DD-UUU-D--(DU)     {Last (DU) Stroke is Filler)

TABS
E|--------------
B|--------------
G|-------10-9--10-
D|--12----------
A|--------------
E|--------------

E|--------------
B|--------------
G|--9--10-9-----
D|--------------10-
A|--------------
E|--------------

E|--------------
B|--------------
G|-------9-----9--
D|--10----12----
A|--------------
E|--------------

E|--------------------
B|--------------------
G|--9--12-10-9--------
D|--------------------12-11-
A|--------------------
E|--------------------


B|--------------
G|-------10-9--10-
D|--12----------
A|--------------
E|--------------

E|--------------
B|--------------
G|--9--10-9-----
D|----------------10-
A|--------------
E|--------------

E|--------------
B|--------------
G|-------9-----9--
D|--10----12----
A|--------------
E|--…

KISS ME Dairy Milk Guitar Tabs With LYRICS and Backing Track | Fx Music | Fuzail xiddiqui

Image
E|-------------------------------------------------------------
B|---------------------------------------------------------
G|-----------4--------------------------------------------
D|----5--7-----------------------------------------------
A|----------------------------------------------------
E|-------------------------------------------------------

KISS ME E|-------------------------------------------------------------
B|---------------------------------------------------------
G|----5-------5------------------------------------
D|--------7------------------------------------------
A|----------------------------------------------------
E|-------------------------------------------------------
CLOSE YOUR EYES E|-------------------------------------------------------------
B|--------5--6--5---------------------------------------------
G|----7-------------------------------------------
D|--------------------------------------------------
A|--------------------------------------------…

Dekhte Dekhte Guitar Chords Lesson | Atif Aslam | Batti Gul Meter Chalu | FuZaiL Xiddiqui | Fx-Music

Image
{Am}Rajj k rulaya
{F}Rajj k hasaya
{Em}Maine dil kho k
{F}Ishq {G}kamaya ​ {Am}Maanga jo usne
{F}Ek sitara
{Em}Humne zameen pe
{F}Chaand {G}bulaya ​ Jo {Am}aankhon se....{D} haayee...
woh jo {Am}aankho se ek pal na {D}ojhal huye
woh jo {Am}aankho se ek pal na {D}ojhal huye
{C}Lapata ho gaye {G}dekhte {Am}dekhte
{Am}Sochta hun,
{Am}Sochta hun k woh kitne {G}maasoom the
{Am}Sochta hun k woh kitne {G}maasoom the
{F}Kya se kya ho gaye {Am}Dekhte Dekhte ​ {Am}Sochta hun k woh kitne {D}maasoom the
{G}Kya se kya ho gaye {C}Dekhte {Am}Dekhte ​ {Am}Aate jaate the jo saansh {G}banke kabhi
(Am)Aate jaate the jo saansh {G}banke kabhi
{F}Woh hawa ho gaye {Am}dekhte dekhte
{F}Woh hawa ho gaye .... {Am}haaye..

ohh oho ohhhooooooo {{{C > G > C > G}}}


{F}Woh hawa ho gaye {Am}dekhte dekhte
{F}Dil nida ho gaye {Am}dekhte dekhte
{F}Lapata ho gaye {Am}dekhte dekhte
{F}kya se kya ho gaye {Am}dekhte dekhte ​ Jeene {Am}marne k hum the {D}wajah aur humhi
Jeene (Am)marne k hum the {D}wajah aur humhi
{G}Bewajah ho gaye {C}dekhte {Am}de…

AIRTEL RINGTONE Guitar Tabs/Lead By FuZaiL Xiddiqui | Fx Music

Image
E|-------------------10-
B|-----------------
G|--12-12-12-12----
D|-----------------
A|-----------------
E|-----------------

E|--------------------
B|--10-11-10---------10-
G|--------------12-10----
D|--------------------
A|--------------------
E|--------------------

E|-----------------------------------
B|------10--------------10-11-10----------
G|--12----12-10-12----------------12-10----
D|---------------------------------------------12-
A|-----------------------------------
E|-----------------------------------

E|--15-10-10-13-10-----------------------10-11-10----
B|----------------------13-11------11-13----------------13-
G|------------------------------12-------------------
D|--------------------------------------------
A|--------------------------------------------
E|--------------------------------------------

E|--------
B|--11-10-
G|--------
D|--------
A|--------
E|--------


E|-------------------10-
B|-----------------
G|--12-12-12-12----
D|-----------------
A|----------------…

Aashiqui-2 LOVE THEME Guitar Tabs/Lead By FuZaiL Xiddiqui

Image
E|-----------------------------------
B|-----7--8-----7--8-----------------
G|--9--------9-----------------------
D|--------------------9--10-10-9--10-
A|-----------------------------------
E|-----------------------------------

E|-----------------------------------
B|--------7--------7-----------------
G|--7--9-----7--9--------------------
D|--------------------10-10-10-9--9--
A|-----------------------------------
E|-----------------------------------

E|--------------------7--7--------------
B|--------------------------10-10-8--10-
G|-----7--9-----7--9--------------------
D|--10-------10-------------------------
A|--------------------------------------
E|--------------------------------------

E|--------------7--7--8--8-----
B|--7--7--------------------10-
G|--------8--8-----------------
D|-----------------------------
A|-----------------------------
E|-----------------------------


E|-----------------------------------
B|-----7--8-----7--8-----------------
G|--9--------9--------------…