Posts

Showing posts from January, 2018

Om Shanti Om Guitar TABS on SINGLE STRING

E|--12-13-12-13-12-13-12-10-8--7--
B|--------------------------------
G|--------------------------------
D|--------------------------------
A|--------------------------------
E|--------------------------------


E|--8--10-8--10-8--10-8--7--5--3--
B|--------------------------------
G|--------------------------------
D|--------------------------------
A|--------------------------------
E|--------------------------------



E|-----5--7--5--7--5--7--5--3--1--3--0--
B|--------------------------------------
G|--------------------------------------
D|--------------------------------------
A|--------------------------------------
E|--------------------------------------


CHALLA GUITAR TABS

E|--------------------
B|--------------------
G|--------5-----------
D|-----5-----7--7--7--
A|-\7-----------------
E|--------------------


E|--------------------
B|--------------------
G|--------5-----------
D|--5--7-----7--7--7--
A|--------------------
E|--------------------



E|-----------------------------------
B|-----------------------------------
G|-----------------------------------
D|-----5--7---7\9--5--3--5--3--------
A|---------------------------------5\7--
E|-----------------------------------



E|--------------------------
B|--------------------------
G|--------------5-----------
D|--------5--7-----7--7--7--
A|----\7--------------------
E|--------------------------



E|--------------------
B|--------------------
G|--------5-----------
D|--5--7-----7--7--7--
A|--------------------
E|--------------------



E|-----------------------------------
B|-----------------------------------
G|-----------------------------------
D|-----5--7---7\9--5--3--5--3--------
A|-------------------------…

KAL HO NA HO THEME GUITAR WRITTEN TABS/NOTES BY FUZAIL XIDDIQUI

Image
E|-------------------------------10----------------------
B|--11-10-11-10-11-10-11-------13-11-10-----10-----10-
G|--------------------------------------------- --12----12----
D|-----------------------------------------------
A|-----------------------------------------------
E|-----------------------------------------------



E|-------------------------------10----------------------
B|--11-10-11-10-11-10-11-------13-11-10-----10-----10-
G|--------------------------------------------- --12----12----
D|-----------------------------------------------
A|-----------------------------------------------
E|-----------------------------------------------


E|--------------
B|----------11----
G|--10-12----12-
D|--------------
A|--------------
E|--------------



E|-----------------
B|-----------------
G|----------10-12-10-
D|-----13----------
A|-----------------
E|-----------------


E|--------------
B|----------11----
G|--10-12----12-
D|--------------
A|--------------
E|--------------


E|--------------…

Mohabbatein Guitar Tabs/Lead/Notes

Image
E|----------------------------------10----
B|--------10-11-10-11-10------------13-
G|---9\12---------------------12-------
D|--------------------------------
A|--------------------------------
E|--------------------------------


E|-----------------------------
B|-----------10-13-10-------------
G|--10-12--------------10-10\12----
D|-----------------------------
A|-----------------------------
E|-----------------------------

E|--10-10-11-10h/p11------------13----
B|-------------------------13-11-13----13-
G|--------------------------------
D|--------------------------------
A|--------------------------------
E|--------------------------------

E|----------10----------------
B|--13-13----13-11-10-10h11-
G|--------------------------
D|--------------------------
A|--------------------------
E|--------------------------

E|-----------
B|--10h/p11----
G|---------------12-
D|-----------
A|-----------
E|-----------


E|----------------------------------10----
B|--------10-11-10-11-10------------1…

KUCH KUCH HOTA HAI GUITAR TABS BY FUZAIL XIDDIQUI-SINGLE STRING

Image
E|--9--10--9h/p10-7--5--9--
B|-----------------------
G|-----------------------
D|-----------------------
A|-----------------------
E|-----------------------


E|--9--10--9h/p10-7--5--9--
B|-----------------------
G|-----------------------
D|-----------------------
A|-----------------------
E|-----------------------


E|--7--
B|-----
G|-----
D|-----
A|-----
E|-----


E|--7--9---7h/p9--5--4--7--0--
B|--------------------------
G|--------------------------
D|--------------------------
A|--------------------------
E|--------------------------



E|--7--5--7--5-----5--5--5--
B|-----------------------
G|-----------------------
D|-----------------------
A|-----------------------
E|-----------------------




E|--5--7--9---9\14-14-12-
B|-----------------------
G|-----------------------
D|-----------------------
A|-----------------------
E|-----------------------




E|--5--5--7--9---9\14-14-12-
B|--------------------------
G|--------------------------
D|--------------------------
A|-------------------------…