KAL HO NA HO THEME GUITAR WRITTEN TABS/NOTES BY FUZAIL XIDDIQUI


E|-------------------------------10----------------------
B|--11-10-11-10-11-10-11-------13-11-10-----10-----10-
G|--------------------------------------------- --12----12----
D|-----------------------------------------------
A|-----------------------------------------------
E|-----------------------------------------------



E|-------------------------------10----------------------
B|--11-10-11-10-11-10-11-------13-11-10-----10-----10-
G|--------------------------------------------- --12----12----
D|-----------------------------------------------
A|-----------------------------------------------
E|-----------------------------------------------



E|--------------
B|----------11----
G|--10-12----12-
D|--------------
A|--------------
E|--------------



E|-----------------
B|-----------------
G|----------10-12-10-
D|-----13----------
A|-----------------
E|-----------------


E|--------------
B|----------11----
G|--10-12----12-
D|--------------
A|--------------
E|--------------


E|-----------------------
B|-----------------------
G|---------13-12-10---------10-
D|-----13--------------13----
A|-----------------------
E|-----------------------


\=Slide
/=Slide Back
h=Hmmer
p=pull off
b=bend

for complete understanding please watch my tutorial video.
if you have any doubt/suggestion please ask in comment section below.

NOTE-if any Mistake/Correction is there in above notes please let me know.

THANKS FOR YOUR VISIT..



NOTE-IF YOU WANT TO ADD THESE NOTES ON YOUR PAGE/BLOG OR WEBSITE PLEASE INFORM ME ONCE.

Get in touch with me (Facebook)
https://www.facebook.com/FuzailXiddiqui/


INSTAGRAM
https://www.instagram.com/fuzail_xiddiqui/

TWITTER
https://twitter.com/fuzail_xiddi


YouTube link (Do share it)
http://www.youtube.com/c/fuZaiLXiddiqui






Comments

Post a comment

Popular posts from this blog

Single String Guitar Songs Mashup - 10 Arijit Singh Songs | Easy One String Bollywood Hindi Songs Guitar Tabs

Tum Hi Aana Guitar Tabs with intro, Chords and Backing Track by Fuxino | Jubin Nautiyal | Marjaavaan | FxMusic

Tujhe Kitna Chahne Lage Hum Guitar Tabs Lesson w/ Cover & Chords | KABIR SINGH | FUXiNO