KUCH KUCH HOTA HAI GUITAR TABS BY FUZAIL XIDDIQUI-SINGLE STRING

E|--9--10--9h/p10-7--5--9--
B|-----------------------
G|-----------------------
D|-----------------------
A|-----------------------
E|-----------------------


E|--9--10--9h/p10-7--5--9--
B|-----------------------
G|-----------------------
D|-----------------------
A|-----------------------
E|-----------------------


E|--7--
B|-----
G|-----
D|-----
A|-----
E|-----


E|--7--9---7h/p9--5--4--7--0--
B|--------------------------
G|--------------------------
D|--------------------------
A|--------------------------
E|--------------------------



E|--7--5--7--5-----5--5--5--
B|-----------------------
G|-----------------------
D|-----------------------
A|-----------------------
E|-----------------------




E|--5--7--9---9\14-14-12-
B|-----------------------
G|-----------------------
D|-----------------------
A|-----------------------
E|-----------------------




E|--5--5--7--9---9\14-14-12-
B|--------------------------
G|--------------------------
D|--------------------------
A|--------------------------
E|--------------------------



E|--7--9--7--5--4--7--0--
B|-----------------------
G|-----------------------
D|-----------------------
A|-----------------------
E|-----------------------


E|--7--5--7--5-----5--5--5--
B|-----------------------
G|-----------------------
D|-----------------------
A|-----------------------
E|-----------------------


E|--7--
B|-----
G|-----
D|-----
A|-----
E|-----



E|--7--9--7--5--4--7--0--
B|-----------------------
G|-----------------------
D|-----------------------
A|-----------------------
E|-----------------------


E|--7--5--7--5-----5--5--5--
B|-----------------------
G|-----------------------
D|-----------------------
A|-----------------------
E|-----------------------

\=Slide
/=Slide Back
h=Hmmer
p=pull off
b=bend

for complete understanding please watch my tutorial video.
if you have any doubt/suggestion please ask in comment section below.

NOTE-if any Mistake/Correction is there in above notes please let me know.

THANKS FOR YOUR VISIT..



NOTE-IF YOU WANT TO ADD THESE NOTES ON YOUR PAGE/BLOG OR WEBSITE PLEASE INFORM ME ONCE.

Get in touch with me (Facebook)
https://www.facebook.com/FuzailXiddiqui/


INSTAGRAM
https://www.instagram.com/fuzail_xiddiqui/

TWITTER
https://twitter.com/fuzail_xiddi


YouTube link (Do share it)
http://www.youtube.com/c/fuZaiLXiddiqui




Comments

Popular posts from this blog

Single String Guitar Songs Mashup - 10 Arijit Singh Songs | Easy One String Bollywood Hindi Songs Guitar Tabs

Tum Hi Aana Guitar Tabs with intro, Chords and Backing Track by Fuxino | Jubin Nautiyal | Marjaavaan | FxMusic

Tujhe Kitna Chahne Lage Hum Guitar Tabs Lesson w/ Cover & Chords | KABIR SINGH | FUXiNO