Posts

Showing posts from February, 2018

HAVANA Guitar Tabs/Notes By FUZAIL XIDDIQUI (With Video)

Image
INTRO
E|--------------------------------------
B|-----3--------------------1-----4--3--
G|--0--------------3--2--2-----2--------
D|--------0--1--1-----------------------
A|--------------------------------------
E|--------------------------------------

E|--------------------------------------
B|-----3--------------------1-----4--3--
G|--0--------------3--2--2-----2--------
D|--------0--1--1-----------------------
A|--------------------------------------
E|--------------------------------------

HAVANA O NA NA
E|--------------------
B|-----3--3-----------
G|--3--------3--3--0--
D|--------------------
A|--------------------
E|--------------------

E|--------------------
B|--3--1--3--4--3--1--
G|--------------------
D|--------------------
A|--------------------
E|--------------------

E|--------------------
B|-----3--3-----------
G|--3--------3--3--0--
D|--------------------
A|--------------------
E|--------------------

E|--------------------
B|--3--1--3--4--3--1--
G|--------------------
D|…

JEENA JEENA GUITAR TABS BY FUZAIL XIDDIQUI

Image
Hmmm ......ummmmm...hmmm.......ummmmm...

E|-----------------------------8-----8-----------
B|--10-11-8--10-8-----8--10-11----10----10-8-----
G|-----------------10-------------------------10-
D|-----------------------------------------------
A|-----------------------------------------------
E|-----------------------------------------------

DEHLEEZ PE M......
E|-----8--8--10-8--10-8--10-12-10-8--8--
B|--10----------------------------------
G|--------------------------------------
D|--------------------------------------
A|--------------------------------------
E|--------------------------------------


JO RAKHE HAI T....
E|--------8--8--10-8--10-8-----------
B|-----10-------------------10----8--
G|-----------------------------10----
D|-----------------------------------
A|-----------------------------------
E|-----------------------------------

TERE NAAM PE MERI Z.....
E|-----8--8--10-8--10-8--10-12-10-8--8--
B|--10----------------------------------
G|------------------------------------…

Guzarish(Gajini) Guitar Tabs by Fuzail xiddiqui

Image
E|--------12-10-12-15-------------------
B|--10-10-------------12-15-12-12-12-10-
G|--------------------------------------
D|--------------------------------------
A|--------------------------------------
E|--------------------------------------



E|-----12-10-12-15----------
B|--10-------------12-15-12-
G|--------------------------
D|--------------------------
A|--------------------------
E|--------------------------




E|--------12-10-12-15-------------------
B|--10-10-------------12-15-12-12-12-10-
G|--------------------------------------
D|--------------------------------------
A|--------------------------------------
E|--------------------------------------



E|-----12-10-12-15----------
B|--10-------------12-15-12-
G|--------------------------
D|--------------------------
A|--------------------------
E|--------------------------



E|--------12-10-12-15-------------------
B|--10-10-------------12-15-12-12-12-10-
G|--------------------------------------
D|---------------------------------…