HAVANA Guitar Tabs/Notes By FUZAIL XIDDIQUI (With Video)

INTRO
E|--------------------------------------
B|-----3--------------------1-----4--3--
G|--0--------------3--2--2-----2--------
D|--------0--1--1-----------------------
A|--------------------------------------
E|--------------------------------------

E|--------------------------------------
B|-----3--------------------1-----4--3--
G|--0--------------3--2--2-----2--------
D|--------0--1--1-----------------------
A|--------------------------------------
E|--------------------------------------

HAVANA O NA NA
E|--------------------
B|-----3--3-----------
G|--3--------3--3--0--
D|--------------------
A|--------------------
E|--------------------

E|--------------------
B|--3--1--3--4--3--1--
G|--------------------
D|--------------------
A|--------------------
E|--------------------

E|--------------------
B|-----3--3-----------
G|--3--------3--3--0--
D|--------------------
A|--------------------
E|--------------------

E|--------------------
B|--3--1--3--4--3--1--
G|--------------------
D|--------------------
A|--------------------
E|--------------------

E|--------------------
B|-----3--3-----------
G|--3--------3--3--0--
D|--------------------
A|--------------------
E|--------------------

E|--------------------
B|--3--1--3--4--3--1--
G|--------------------
D|--------------------
A|--------------------
E|--------------------

-----------------------------------------------------------

E|-----------------------
B|-----3-----3--1--3--1--
G|--3-----3--------------
D|-----------------------
A|-----------------------
E|-----------------------


E|--------------------------------
B|-----3--------------------------
G|--3-----2--3--2--3--2--3--2--0--
D|--------------------------------
A|--------------------------------
E|--------------------------------

-----------------------------------------------------------
E|--3--3--3--------------------
B|-----------3--3--4--3--1--3--
G|-----------------------------
D|-----------------------------
A|-----------------------------
E|-----------------------------


E|-----------------
B|--3--1--3--1-----
G|--------------0--
D|-----------------
A|-----------------
E|-----------------


E|--3--3--3--------------------
B|-----------3--3--4--3--1--3--
G|-----------------------------
D|-----------------------------
A|-----------------------------
E|-----------------------------


E|-----------------
B|--3--1--3--1-----
G|--------------0--
D|-----------------
A|-----------------
E|-----------------

-------------------------------------------------------------

E|--3--3--3--3--5--6--5--3--5--
B|-----------------------------
G|-----------------------------
D|-----------------------------
A|-----------------------------
E|-----------------------------


E|-----------------
B|--3--1--3--1-----
G|--------------0--
D|-----------------
A|-----------------
E|-----------------


-------------------------------------------------------

E|--3--3--3--------------------
B|-----------3--3--4--3--1--3--
G|-----------------------------
D|-----------------------------
A|-----------------------------
E|-----------------------------


E|-----------------
B|--3--1--3--------
G|-----------0--0--
D|-----------------
A|-----------------
E|-----------------


---------------------------------------------------------


E|--1--3--1--3--10-8--6--8--5--
B|-----------------------------
G|-----------------------------
D|-----------------------------
A|-----------------------------
E|-----------------------------


E|--1--1--1--1--1--3--------------------------
B|--------------------3--3--1--3--1-----3-----
G|-----------------------------------3-----2--
D|--------------------------------------------
A|--------------------------------------------
E|--------------------------------------------

E|--3--3--3--3--3--1--3--1--3--10-8--6--8--5--
B|--------------------------------------------
G|--------------------------------------------
D|--------------------------------------------
A|--------------------------------------------
E|--------------------------------------------

E|--1--1--1--1--3-----------6--5--3--3--3--3--3--3--
B|-----------------3--3--3--------------------------
G|--------------------------------------------------
D|--------------------------------------------------
A|--------------------------------------------------
E|--------------------------------------------------


HAVANA O NA NA
E|--------------------
B|-----3--3-----------
G|--3--------3--3--0--
D|--------------------
A|--------------------
E|--------------------

E|--------------------
B|--3--1--3--4--3--1--
G|--------------------
D|--------------------
A|--------------------
E|--------------------

REPEAT ABOVE LINES ACCORDING TO SONG STRUCTURE.


\=Slide
/=Slide Back
h=Hmmer
p=pull off
b=bend

for complete understanding please watch my tutorial video.
if you have any doubt/suggestion please ask in comment section below.

NOTE-if any Mistake/Correction is there in above notes please let me know.

THANKS FOR YOUR VISIT..



NOTE-IF YOU WANT TO ADD THESE NOTES ON YOUR PAGE/BLOG OR WEBSITE PLEASE INFORM ME ONCE.

Get in touch with me (Facebook)
https://www.facebook.com/FuzailXiddiqui/


INSTAGRAM
https://www.instagram.com/fuzail_xiddiqui/

TWITTER
https://twitter.com/fuzail_xiddi


YouTube link (Do share it)
http://www.youtube.com/c/fuZaiLXiddiqui


Comments

  1. There is a reason why I bought a Mac, it was not to be one of the cool kids that wanted the best of the best. No it was because of the music production I do on it. Hours and hours sitting in front of my Mac copying, pasting, moving, deleting, hour after hour just beating on my Mac in a endless assault to get my work done. That is the key part, my work. I work from home, it is great, but even if it is from home it is still work and it still needs to get done. So my Mac, I have it because it is fast, gets the job done and comes back for more.

    But what happens when it doesn't want to do those things anymore?

    I move around massive amounts of information and yes even on the almighty Mac this can cause a problem after a while. Things fragment, programs get corrupted issues come up. My light speed Mac slows down to a crawl and all of the sudden I simply can not get any work done. Because I work from home there is no IT guy to call and ask to come fix it. No instead I have to figure out what is wrong. I am lucky, I did, but not after trying everything under the sun first and wasting countless hours looking for one program that can do what I needed instead of ten programs. One program to lead them all….okay that was a lame Lord of the rings reference, but that program was/is Detox My Mac. A simple to use program that did not just fix my issues, it put my Mac on overdrive again. A few clicks and my Mac was clean and ready to rock and roll again.

    Read more here:- http://detox-my-mac.com?duhhf9265hskfhf98346

    ReplyDelete
  2. Amazing video FUXiNO sir 🤗
    Thank you.
    And please follow me Instagram profile
    @mohguitars

    ReplyDelete

Post a comment

Popular posts from this blog

Single String Guitar Songs Mashup - 10 Arijit Singh Songs | Easy One String Bollywood Hindi Songs Guitar Tabs

Tum Hi Aana Guitar Tabs with intro, Chords and Backing Track by Fuxino | Jubin Nautiyal | Marjaavaan | FxMusic

Tujhe Kitna Chahne Lage Hum Guitar Tabs Lesson w/ Cover & Chords | KABIR SINGH | FUXiNO