Posts

Showing posts from March, 2018

Neele Neele Ambar Par Guitar Tabs/Written Notes For Beginners by FuZaiL Xiddiqui

Image
CHORDS USED IN MY VIDEO

Capo on 5th fret
Am,G,F,E

STRUMMING>DD-UU-DU

E|--------5--------------
B|-----6-----8--8--8--5--
G|--7--------------------
D|-----------------------
A|-----------------------
E|-----------------------


E|-----------------------
B|-----5--8--6--6--6-----
G|--5-----------------7--
D|-----------------------
A|-----------------------
E|-----------------------



E|--------5--------------
B|-----6-----8--8--8--5--
G|--7--------------------
D|-----------------------
A|-----------------------
E|-----------------------



E|-----------------------
B|-----5--8--6--6--6-----
G|--5-----------------7--
D|-----------------------
A|-----------------------
E|-----------------------



E|--5-----5------8\10-10-10-
B|-----6-----6--------------
G|--------------------------
D|--------------------------
A|--------------------------
E|--------------------------




E|-----------10-8--8--8--8--
B|--6--10----------------
G|-----------------------
D|-----------------------
A|----------------------…

Naagin Guitar Tabs Lesson By Fuzail xiddiqui

Image
E|--0--0--2--5--5--4--2--0--
B|--------------------------
G|--------------------------
D|--------------------------
A|--------------------------
E|--------------------------


E|--0--0--2--5--5--4--2--0--
B|--------------------------
G|--------------------------
D|--------------------------
A|--------------------------
E|--------------------------

E|--2--3--2--0--
B|--------------
G|--------------
D|--------------
A|--------------
E|--------------

E|--2--3--2--0--
B|--------------
G|--------------
D|--------------
A|--------------
E|--------------

E|--2--
B|-----
G|-----
D|-----
A|-----
E|-----

E|--0--0--------
B|--------3--3--
G|--------------
D|--------------
A|--------------
E|--------------

E|--0--0--2--2--3--3--2--
B|-----------------------
G|-----------------------
D|-----------------------
A|-----------------------
E|-----------------------

E|--0--0--0--0--0--0--0--0--0--0--0--0--0--0--0--0--0--0--0--0--(its your choice)
B|--------------------------------------------------------…

Give Me Some Sunshine Guitar Tabs/Lead Lesson Video | 3 Idiots | Amir Khan | FuZaiL XIiddiqui

Image
INTRO

BASE STRING

E|-----------------------
B|-----------------------
G|-----------------------
D|-----2--2--2--2--2--3--
A|--3--------------------
E|-----------------------


E|-----------------------
B|-----------------------
G|-----------------------
D|-----2--2--2--2--2--3--
A|--3--------------------
E|-----------------------


E|-----------------------
B|-----------------------
G|-----------------------
D|-----2--2--2--2--2--3--
A|--3--------------------
E|-----------------------


E|--------------------------------
B|--------------------------------
G|--------------------------------
D|-----2--2--2--2--2--0--0--0--0--
A|--3-----------------------------
E|--------------------------------

TREBBLE STRING

E|-----0--0--0--0--0--1--
B|--1--------------------
G|-----------------------
D|-----------------------
A|-----------------------
E|-----------------------

E|-----0--0--0--0--0--1--
B|--1--------------------
G|-----------------------
D|-----------------------
A|-----------------------
E|--…

Tees Maar Khan Theme Guitar Tabs Lesson (Main Riff) | Akshay & Katrina | FuZaiL Xiddiqui

Image
E|-----------------
B|-----------------
G|-----------------
D|-----4--4--4--4--
A|--2--------------
E|-----------------


E|-----------------
B|-----------------
G|-----------------
D|-----5--5--5--5--
A|--2--------------
E|-----------------

E|-----------------
B|-----------------
G|-----------------
D|-----4--4--4--4--
A|--2--------------
E|-----------------





EASY VERSION

E|-----------------
B|-----------------
G|-----------------
D|-----------------
A|-----2--2--2--2--
E|--0--------------


E|-----------------
B|-----------------
G|-----------------
D|-----------------
A|-----3--3--3--3--
E|--0--------------


E|-----------------
B|-----------------
G|-----------------
D|-----------------
A|-----2--2--2--2--
E|--0--------------





Guru Randhawa Mashup Guitar Chords Lesson | 3 CHORDS | Easy Punjabi Songs Mashup For Beginners

Image
CHORDS
Em,D,C
CHORD PROGRESSION= Em>D>C>D (in Whole mashup)

STRUMMING
D---Pluck stringsD-D-D......DD-UDU-DDDD-UDU-DD----(DU).                  (Divided on Chords) Note- in 4th strumming the last two stokes (DU) which is in bracket  will be used as FILLER. (Refer my video for complete understanding)

(D---Pluck strings) Tere bin nahi main jeena, mar hi jaana Kinni sohni lagdi sonh hai rab di eeee

D-D-D...... Sun meri rani rani Ban meri rani rani
*SLIDE ON 6TH STRING (Refer my video for complete understanding)
DD-UDU-DD----(DU) Haaye ni haaye nakhra tera ni High rated gabru nu maare Haaye ni munde pagal ho gaye ne Tere gin gin lakk de hulare 

DD-UDU-DD----(DU) Kudi da pata karo Kehde pind di aa Kehde shehar di aa

D-D-D...... Oh lagdi Lahore di aa Jis hisaab na hansdi aa Oh lagdi Punjab di aa Jis hisaab na takkdi aa


DD-UDU-DD Oh lagdi Lahore di aa Jis hisaab na hansdi aa Oh lagdi Punjab di aa Jis hisaab na takkdi aa Oh lagdi Lahore di aa Jis hisaab na hansdi aa


DD-UDU-DD----(DU) Kala suit …

Baazigar O Baazigar Guitar Tabs/Lead Lesson | SINGLE STRING | Easy Guitar Tabs For Beginners

Image
BAZIGAR MULTI STRING GUITAR TABS

E|--7-----8--7-----------
B|-----10-------10-8--10-
G|-----------------------
D|-----------------------
A|-----------------------
E|-----------------------


E|--------------------------
B|--8--7--7--10-8--7--------7--
G|-------------------------9-----
D|--------------------------
A|--------------------------
E|--------------------------

E|-----------------------
B|-----------------------
G|--9--7--7--------7-----
D|-----------10-10----10-
A|-----------------------
E|-----------------------

E|-----------------------------------------
B|-----------------------------------------
G|--------------------------7--7--7--8--8--8--9--
D|--9--9--9--10-10-10----------------------
A|-----------------------------------------
E|-----------------------------------------

E|-----------------------------
B|--------7--10-8--7--8--7-----
G|-----8-----------------------9--
D|--9--------------------------
A|-----------------------------
E|-----------------------------

E|-----…

Jeene Laga Hoon Guitar Chords Lesson With intro TABS | Atif Aslam | OPEN CHORDS l Ramaiya Vastavaiya | Lyrics

Image
INTRO TABS

E|-----5--6---5hP6--------
B|--8-----------------8--6--
G|-----------------------
D|----------------------- A|----------------------- E|-----------------------
E|-----5--6---5hP6-------- B|--8-----------------8--6-- G|----------------------- D|----------------------- A|----------------------- E|-----------------------

E|-----5--6---5hP6-------- B|--8-----------------8--6-- G|----------------------- D|----------------------- A|----------------------- E|-----------------------


E|-----8-- B|--8----- G|-------- D|-------- A|-------- E|--------

E|--6--5-- B|-------- G|--------

Jai Ho Guitar Tabs Lesson | Slumdog Millionaire | AR Rehman | FuZaiL Xiddiqui

Image
E|-----------------------------------------------------
B|-----------------------------------------------------
G|-----------------------------------------------------
D|--2--2--2--2--2--3--3--3--3--3--2--2--2--2--2--0--2(mute)--
A|-----------------------------------------------------
E|-----------------------------------------------------



E|-----------------------------------------------------
B|-----------------------------------------------------
G|-----------------------------------------------------
D|--2--2--2--2--2--3--3--3--3--3--2--2--2--2--2--0--2(mute)--
A|-----------------------------------------------------
E|-----------------------------------------------------



E|-----------------------------------------------------------
B|-----------------------------------------------------------
G|-------------------------------------------------------5--5-----------
D|--2--3--2--2--3--2--3--2--2--3--2--3--2--2---------------2--0-----
A|----------------------------------------------…