Baazigar O Baazigar Guitar Tabs/Lead Lesson | SINGLE STRING | Easy Guitar Tabs For Beginners

BAZIGAR MULTI STRING GUITAR TABS

E|--7-----8--7-----------
B|-----10-------10-8--10-
G|-----------------------
D|-----------------------
A|-----------------------
E|-----------------------


E|--------------------------
B|--8--7--7--10-8--7--------7--
G|-------------------------9-----
D|--------------------------
A|--------------------------
E|--------------------------

E|-----------------------
B|-----------------------
G|--9--7--7--------7-----
D|-----------10-10----10-
A|-----------------------
E|-----------------------

E|-----------------------------------------
B|-----------------------------------------
G|--------------------------7--7--7--8--8--8--9--
D|--9--9--9--10-10-10----------------------
A|-----------------------------------------
E|-----------------------------------------

E|-----------------------------
B|--------7--10-8--7--8--7-----
G|-----8-----------------------9--
D|--9--------------------------
A|-----------------------------
E|-----------------------------

E|--------------------------------
B|--------7--10-10-8--7--8--7-----
G|-----8----------------------------9--
D|--9-----------------------------
A|--------------------------------
E|--------------------------------


BAZIGAR SINGLE STRING GUITAR TABS

E|--12-10-13-12-10-8--10-
B|-----------------------
G|-----------------------
D|-----------------------
A|-----------------------
E|-----------------------


E|--8--7--7--10-8--7--5--7--
B|--------------------------
G|--------------------------
D|--------------------------
A|--------------------------
E|--------------------------

E|--5--3--3--1--1--3--1--
B|-----------------------
G|-----------------------
D|-----------------------
A|-----------------------
E|-----------------------

E|--0--0--0--1--1--1--3--3--3--4--4--4--5--
B|-----------------------------------------
G|-----------------------------------------
D|-----------------------------------------
A|-----------------------------------------
E|-----------------------------------------

E|--0--4--7--10-8--7--8--7--5--
B|-----------------------------
G|-----------------------------
D|-----------------------------
A|-----------------------------
E|-----------------------------

E|--0--4--7--10-10-8--7--8--7--5--
B|--------------------------------
G|--------------------------------
D|--------------------------------
A|--------------------------------
E|--------------------------------


REPEAT ABOVE LINES ACCORDING TO SONG STRUCTURE.


\=Slide
/=Slide Back
h=Hmmer
p=pull off
b=bend

for complete understanding please watch my tutorial video.
if you have any doubt/suggestion please ask in comment section below.

NOTE-if any Mistake/Correction is there in above notes please let me know.

THANKS FOR YOUR VISIT..



NOTE-IF YOU WANT TO ADD THESE NOTES ON YOUR PAGE/BLOG OR WEBSITE PLEASE INFORM ME ONCE.

Get in touch with me (Facebook)


INSTAGRAM

TWITTER


YouTube link (Do share it)





Comments

  1. There is a reason why I bought a Mac, it was not to be one of the cool kids that wanted the best of the best. No it was because of the music production I do on it. Hours and hours sitting in front of my Mac copying, pasting, moving, deleting, hour after hour just beating on my Mac in a endless assault to get my work done. That is the key part, my work. I work from home, it is great, but even if it is from home it is still work and it still needs to get done. So my Mac, I have it because it is fast, gets the job done and comes back for more.

    But what happens when it doesn't want to do those things anymore?

    I move around massive amounts of information and yes even on the almighty Mac this can cause a problem after a while. Things fragment, programs get corrupted issues come up. My light speed Mac slows down to a crawl and all of the sudden I simply can not get any work done. Because I work from home there is no IT guy to call and ask to come fix it. No instead I have to figure out what is wrong. I am lucky, I did, but not after trying everything under the sun first and wasting countless hours looking for one program that can do what I needed instead of ten programs. One program to lead them all….okay that was a lame Lord of the rings reference, but that program was/is Detox My Mac. A simple to use program that did not just fix my issues, it put my Mac on overdrive again. A few clicks and my Mac was clean and ready to rock and roll again.

    Read more here:- http://detox-my-mac.com?duhhf9265hskfhf98346

    ReplyDelete

Post a Comment

Popular posts from this blog

Single String Guitar Songs Mashup - 10 Arijit Singh Songs | Easy One String Bollywood Hindi Songs Guitar Tabs

Tum Hi Aana Guitar Tabs with intro, Chords and Backing Track by Fuxino | Jubin Nautiyal | Marjaavaan | FxMusic

O Pata Nahi Ji Kaunsa Nasha Karta hai Guitar Tabs & Chords - Titliyan | Hardy Sandhu | Yaar Mera Titliyan Warga | Fx-Music | Fuxino