Posts

Showing posts from April, 2018

VAASTE GUITAR TABS,CHORDS with Backing Track by FUXiNO | FX-MUSIC

Image
WATCH MY VIDEO FOR BETTER UNDERSTANDING...

Chord Used - Capo on 5th Fret C,G,Am,F

STRUMMING - D-UDU-D-UDU-DD - (DU)*  Last (DU)* Stroke is filler
Backing Track is Available Below of This Post (Scroll Down)
TABS
SYMBOLS (/) Slide Down (\) Slide Up   (h) Hammer On   (p) Pull Off   (x) Muted

INTRO E|------------------------------------- B|--\6--6--6--6---6--6--6---6--6-- G|------------------------------------ D|------------------------------------- A|------------------------------------ E|------------------------------------

E|--------------------------------------- B|---6\8--8--8--8---8--8--8---8--8-- G|--------------------------------------- D|--------------------------------------- A|--------------------------------------- E|--------------------------------------- IT TAKES A-LOT OF TIME AND EFFORTS TO MAKE VIDEOS,BACKING TRACK AND THESE WRITTEN NOTES, SO IF YOU WANT TO ENCOURAGE ME YOU CAN BY DONATING ANYTHING (CLICK ON THIS PAYTM ICON) Donate with


E|---------------------------------------…

O Saathi Guitar Tabs/Lead Lesson with intro | Atif Aslam | Baaghi 2 | FuZaiL Xiddiqui

Image
NOTE-PLEASE WATCH MY VIDEO FOR COMPLETE UNDERSTANDING.


INTRO
E|-----------------
B|--9---8h/p9--------
G|---------------10-8--
D|-----------------
A|-----------------
E|-----------------

E|--------------
B|--------------
G|-----8--10-8--
D|--11----------
A|--------------
E|--------------

E|-----------------
B|-----------------
G|--10-8-----------
D|--------11-10-8--
A|-----------------
E|-----------------

E|--------------
B|--------------
G|-----8--10-8--
D|--11----------
A|--------------
E|--------------

E|--------------
B|-----9--8--11-
G|--8-----------
D|--------------
A|--------------
E|--------------



ALLAH MUJHE DARD KE KABIL BANA DIYA
E|-----8--8-----8-----8-----11-11-11-9--8--
B|-----------11----11----11----------------
G|--8--------------------------------------
D|-----------------------------------------
A|-----------------------------------------
E|-----------------------------------------


TUFAA IS KASHTI KA SAHIL BANA DIYA
E|--------------------------8--------------
B|-----9…

TECHNICAL GURUJI RAP SONG GUITAR CHORDS & INTRO TABS with LYRICS | FUZAIL XIDDIQUI

Image
INTRO
E|-----3--3--------------
B|-----------6--6--4--3--
G|--5--------------------
D|-----------------------
A|-----------------------
E|-----------------------


E|-----------------------
B|-----3--3--------------
G|--3--------5--5--3--3--
D|-----------------------
A|-----------------------
E|-----------------------



OUTRO

E|-----3--3--3--3---3h//p4--1--3--3--
B|--1-----------------------------
G|--------------------------------
D|--------------------------------
A|--------------------------------
E|--------------------------------


E|-----3--3--3--3---1h/p3-----------
B|--1-------------------------4--3--1--
G|--------------------------------
D|--------------------------------
A|--------------------------------
E|--------------------------------

CHORDS
Cm,Gm

STRUMMING
DD-UU-DD-UU--(DU-DU)         *Refer My Youtube video for complete understanding.

DD'-UU'-DD'-UU'--(DU-DU)      *Refer My Youtube video for complete understanding.

SONG LYRICS
EK KAHANI MUJHE SABKO BATANI HAI,
THO…

Chura Liya Hai Tumne Jo Dil Ko Guitar Tabs/Lead Lesson on SINGLE STRING by FuZaiL Xiddiqui

Image
INTRO PIECE (MODIFIED)*
E|--------------------------------------------
B|--------------------------------------------3--2--
G|--4--4--4--4--4--4--4--4--4--2--4--4--------
D|--------------------------------------------
A|--------------------------------------------
E|--------------------------------------------


E|--7--7--7--7--7--7--7--7--7--5--7--7--10-9--
B|--------------------------------------------
G|--------------------------------------------
D|--------------------------------------------
A|--------------------------------------------
E|--------------------------------------------


ORIGINAL INTRO TABS(WITH RESPECT TO CAPO or NUT)
E|-----------0----------------------0-----------
B|--------------1--0-------------------1--0-----
G|--------2-----------2----------2-------------2--
D|-----2----------------------2-----------------
A|-----------------------------------------------
E|------------------------------------------------


E|-----------------------------------------
B|-----------1…

Ajeeb Dastan Hai Yeh Guitar Tabs/Lead With intro (written notes) | Easy For Beginners | FuZaiL Xiddiqui

Image
INTRO
E|-----------5-----------------------5--
B|--------6-----8--6--------------6-----
G|--5--7--------------7--5--5--7--------
D|--------------------------------------
A|--------------------------------------
E|--------------------------------------


E|-----------5-----------------------8--
B|--------6-----8--6--------------6-----
G|--5--7--------------7--5--5--7--------
D|--------------------------------------
A|--------------------------------------
E|--------------------------------------


MAIN SONG
E|--10-8--10-8-----------------
B|--------------10-8-----8--10-
G|--------------------10-------
D|-----------------------------
A|-----------------------------
E|-----------------------------


E|--10-8--10-8-----------------
B|--------------10-8--------8--
G|--------------------10-10----
D|-----------------------------
A|-----------------------------
E|-----------------------------

E|-----------------------------
B|--10-8--10-8-----------------
G|-----------------10-9--7--9--7--
D|-------…

Tab Bhi Tu Guitar Chords and Lyrics | October | Rahat Fateh Ali Khan | Varun Dhawan | FuZaiL Xiddiqui

TAB BHI TU GUITAR CHORDSBm,G,F#,D,A,Em    
STRUMMINGDDD-UDU-DD---(DU)*.      Last (DU)* Stroke is Filler Stroke
Use Capo on 2nd fret to make it more easy and open chords Am,F,E,C,G,Dm
EXTRA TIPS>You can play whole song (vocal part) by using only first three chords (Bm,G,F#) for melody and harmony part you can use other three chords (D,A,Em) *Please refer my video for complete understanding.

Tab Bhi Tu LyricsMeri rooh karegi fariyad
Meri saasein kahin kho jayengi
Tab bhi tu mere sang rehna
Tab bhi tu mere sang rehna
Tab bhi tu mere sang rehna Jab rakh banega yeh suraj
Aur dhoop dhuaan ho jayegi
Tab bhi tu mere sang rehna
Tab bhi tu mere sang rehna
Tab bhi tu mere sang rehna Sajde ki tarah phir aakhein jhukin
Phir palkein namazi huyin
Tere zikra mein thi kuchh aisi nami
Sookhi saasein bhi taazi huyin Ja umra ki awara baarish
Sab rang mere dho jayegi
Tab bhi tu mere sang rehna
Tab bhi tu mere sang rehna
Tab bhi tu mere sang rehna Taveez hai meri mutthi mein
Taveez mein hai tasveer teri
Uljhi si lakeerein hath m…