Chura Liya Hai Tumne Jo Dil Ko Guitar Tabs/Lead Lesson on SINGLE STRING by FuZaiL Xiddiqui


INTRO PIECE (MODIFIED)*
E|--------------------------------------------
B|--------------------------------------------3--2--
G|--4--4--4--4--4--4--4--4--4--2--4--4--------
D|--------------------------------------------
A|--------------------------------------------
E|--------------------------------------------


E|--7--7--7--7--7--7--7--7--7--5--7--7--10-9--
B|--------------------------------------------
G|--------------------------------------------
D|--------------------------------------------
A|--------------------------------------------
E|--------------------------------------------


ORIGINAL INTRO TABS(WITH RESPECT TO CAPO or NUT)
E|-----------0----------------------0-----------
B|--------------1--0-------------------1--0-----
G|--------2-----------2----------2-------------2--
D|-----2----------------------2-----------------
A|-----------------------------------------------
E|------------------------------------------------


E|-----------------------------------------
B|-----------1--0--------------3--0--------
G|--------2--------2--------2--------2--1--
D|-----3--------------3--0-----------------
A|-----------------------------------------
E|-----------------------------------------



E|--------------0--------------------------
B|-----------3-----3--0--------------------
G|--------1--------------2--1-----1-----1--
D|-----2-----------------------2-----2-----
A|-----------------------------------------
E|-----------------------------------------



E|-------------------------------------------------------
B|-----0-----0-----0-----0-----0-----0-----0-----0----
G|--------2-----2-----2-----2-----2-----2-----2------2
D|-----------------------------------------------
A|-----------------------------------------------
E|-----------------------------------------------



MAIN SONG

E|--7--7--10-9--7--7--9--7--5--0--
B|--------------------------------
G|--------------------------------
D|--------------------------------
A|--------------------------------
E|--------------------------------

E|--7--7--10-9--7--7--9--7--6--
B|-----------------------------
G|-----------------------------
D|-----------------------------
A|-----------------------------
E|-----------------------------


E|--7--7--10-9--7--7--9--7--5--0--
B|--------------------------------
G|--------------------------------
D|--------------------------------
A|--------------------------------
E|--------------------------------

E|--7--7--10-9--7--7--9--7--6--
B|-----------------------------
G|-----------------------------
D|-----------------------------
A|-----------------------------
E|-----------------------------

E|--12-12-12-14-14-14-12-9-----
B|-----------------------------
G|-----------------------------
D|-----------------------------
A|-----------------------------
E|-----------------------------

E|--12-12-12-14-14-14-12-9-----
B|-----------------------------
G|-----------------------------
D|-----------------------------
A|-----------------------------
E|-----------------------------



E|--12-12-12-11-7--11-9--7--11-9--7--11-9--7--7--
B|-----------------------------------------------
G|-----------------------------------------------
D|-----------------------------------------------
A|-----------------------------------------------
E|-----------------------------------------------

E|--7--7--10-9--
B|--------------
G|--------------
D|--------------
A|--------------
E|--------------

E|--7--7--10-9--7--7--9--7--5--0--
B|--------------------------------
G|--------------------------------
D|--------------------------------
A|--------------------------------
E|--------------------------------

E|--7--7--10-9--7--7--9--7--6--
B|-----------------------------
G|-----------------------------
D|-----------------------------
A|-----------------------------
E|-----------------------------

LEAD(OPTIONAL)

E|--7--5--7--5--7--5--7--5--9--7--9--7--9--7--9--7--10-9--10-9--10-9--10-9--10\12-12\14-
B|--------------------------------------------------------------------------------------
G|--------------------------------------------------------------------------------------
D|--------------------------------------------------------------------------------------
A|--------------------------------------------------------------------------------------
E|--------------------------------------------------------------------------------------





E|--7--9--10-12-12-12-14-12-10-9--7--9--10-10-10-10-
B|--------------------------------------------------
G|--------------------------------------------------
D|--------------------------------------------------
A|--------------------------------------------------
E|--------------------------------------------------

E|--7--9--10-12-12-12-14-12-10-9--7--10-9--7--7--7--
B|--------------------------------------------------
G|--------------------------------------------------
D|--------------------------------------------------
A|--------------------------------------------------
E|--------------------------------------------------

E|--12-12-12-14-14-14-12-9-----
B|-----------------------------
G|-----------------------------
D|-----------------------------
A|-----------------------------
E|-----------------------------

E|--12-12-12-14-14-14-12-9-----
B|-----------------------------
G|-----------------------------
D|-----------------------------
A|-----------------------------
E|-----------------------------



E|--12-12-12-11-7--11-9--7--11-9--7--11-9--7--7--
B|-----------------------------------------------
G|-----------------------------------------------
D|-----------------------------------------------
A|-----------------------------------------------
E|-----------------------------------------------

E|--7--7--10-9--
B|--------------
G|--------------
D|--------------
A|--------------
E|--------------

E|--7--7--10-9--7--7--9--7--5--0--
B|--------------------------------
G|--------------------------------
D|--------------------------------
A|--------------------------------
E|--------------------------------

E|--7--7--10-9--7--7--9--7--6--
B|-----------------------------
G|-----------------------------
D|-----------------------------
A|-----------------------------
E|-----------------------------




CHORDS USED IN MY VIDEO

CAPO ON 2nd Fret
Am,G,F,E,E7,Dm and Asus2


Strumming
D-UC-DU-D-UC


(Am)Chura Liya Hai Tumne Jo (G)Dil Ko
(Am)Nazar Nahin Churaana Sa(E)nam
(Am)Badalke Meri Tum Zinda(G)gaani
(Am)Kahin Badal Na Jaana Sa(E)nam
Le Li(E7)ya Dil(E) Oh Haai Me(E7)ra Dil(E)
Haai Dil (A)Lekar Mujhko (A)Na Behlaana
(Am)Chura Liya Hai Tumne Jo (G)Dil Ko
(Am)Nazar Nahin Churaana Sa(E)nam
(Am)Badalke Meri Tum Zinda(G)gaani
(Am)Kahin Badal Na Jaana Sa(E)nam

(Dm)Bahaar Banke (G)Aaoon Kabhi
(Am)Tumhaari Duniya (Am)Mein
(Dm)Guzar Na Jaaye (G)Yeh Din
Kahin (F)Isi Tamanna (Am)Mein


Tum Me(E7)re Ho(E) Ho Tum Me(E7)re Ho(E)
Aaj Tum (A)Itna Vaada (A)Karte Jaana
(Am)Chura Liya
(Am)Chura Liya Hai Tumne Jo (G)Dil Ko
(Am)Nazar Nahin Churaana Sa(E)nam
(Am)Badalke Meri Tum Zinda(G)gaani
(Am)Kahin Badal Na Jaana Sa(E)nam

REPEAT ABOVE LINES (CHORD PROGRESSIONS) ACCORDING TO SONG...




Chura Liya Hai Tumne Jo Dil Ko Backing Track












Comments

  1. There is a reason why I bought a Mac, it was not to be one of the cool kids that wanted the best of the best. No it was because of the music production I do on it. Hours and hours sitting in front of my Mac copying, pasting, moving, deleting, hour after hour just beating on my Mac in a endless assault to get my work done. That is the key part, my work. I work from home, it is great, but even if it is from home it is still work and it still needs to get done. So my Mac, I have it because it is fast, gets the job done and comes back for more.

    But what happens when it doesn't want to do those things anymore?

    I move around massive amounts of information and yes even on the almighty Mac this can cause a problem after a while. Things fragment, programs get corrupted issues come up. My light speed Mac slows down to a crawl and all of the sudden I simply can not get any work done. Because I work from home there is no IT guy to call and ask to come fix it. No instead I have to figure out what is wrong. I am lucky, I did, but not after trying everything under the sun first and wasting countless hours looking for one program that can do what I needed instead of ten programs. One program to lead them all….okay that was a lame Lord of the rings reference, but that program was/is Detox My Mac. A simple to use program that did not just fix my issues, it put my Mac on overdrive again. A few clicks and my Mac was clean and ready to rock and roll again.

    Read more here:- http://detox-my-mac.com?duhhf9265hskfhf98346

    ReplyDelete
  2. Very nice of you for providing the backing track as well.

    ReplyDelete
  3. Hii bro how to maintain guitar strings my strings are not lasting for a long time.Please suggest

    ReplyDelete
    Replies
    1. Bro.. When you are not playing the guitar for about 1 week than loose the string .. And when to want to use it! again tune it.. It will also help your fretboard..

      Delete
  4. Bro how to download this track

    ReplyDelete
  5. How to download the backing track?

    ReplyDelete
    Replies
    1. This comment has been removed by a blog administrator.

      Delete
  6. Apple iPad Pro 2021 Launched with M1 Chip, mini-LED Display https://t.co/pE1hJJZ0GO

    #Apple #AppleEvent #AppleM1 #AppleiPadPro @Apple #technews #technologyandtricks #AirTags

    ReplyDelete
  7. This comment has been removed by a blog administrator.

    ReplyDelete
  8. After a long time, I read a very beautiful and very important article that I enjoyed reading. I have found that this article has many important points, I sincerely thank the admin of this website for sharing it. Get for more information outdoor led display screen price in delhi

    ReplyDelete
  9. After a long time, I read a very beautiful and very important article that I enjoyed reading. I have found that this article has many important points, I sincerely thank the admin of this website for sharing it. Get for more information digital display screen for advertising

    ReplyDelete

Post a Comment

Popular posts from this blog

Single String Guitar Songs Mashup - 10 Arijit Singh Songs | Easy One String Bollywood Hindi Songs Guitar Tabs

Tum Hi Aana Guitar Tabs with intro, Chords and Backing Track by Fuxino | Jubin Nautiyal | Marjaavaan | FxMusic

O Pata Nahi Ji Kaunsa Nasha Karta hai Guitar Tabs & Chords - Titliyan | Hardy Sandhu | Yaar Mera Titliyan Warga | Fx-Music | Fuxino