O Saathi Guitar Tabs/Lead Lesson with intro | Atif Aslam | Baaghi 2 | FuZaiL Xiddiqui


NOTE-PLEASE WATCH MY VIDEO FOR COMPLETE UNDERSTANDING.


INTRO
E|-----------------
B|--9---8h/p9--------
G|---------------10-8--
D|-----------------
A|-----------------
E|-----------------

E|--------------
B|--------------
G|-----8--10-8--
D|--11----------
A|--------------
E|--------------

E|-----------------
B|-----------------
G|--10-8-----------
D|--------11-10-8--
A|-----------------
E|-----------------

E|--------------
B|--------------
G|-----8--10-8--
D|--11----------
A|--------------
E|--------------

E|--------------
B|-----9--8--11-
G|--8-----------
D|--------------
A|--------------
E|--------------



ALLAH MUJHE DARD KE KABIL BANA DIYA
E|-----8--8-----8-----8-----11-11-11-9--8--
B|-----------11----11----11----------------
G|--8--------------------------------------
D|-----------------------------------------
A|-----------------------------------------
E|-----------------------------------------


TUFAA IS KASHTI KA SAHIL BANA DIYA
E|--------------------------8--------------
B|-----9--9-----9-----9--------11-11-9--11-
G|--8--------10----10----8-----------------
D|-----------------------------------------
A|-----------------------------------------
E|-----------------------------------------


BECHAINIYA SAMET KE SAARE JAHAN KI
E|-----8-----8-----8-----8-----11-11-11-9--8--
B|--------11----11----11----11----------------
G|--8-----------------------------------------
D|--------------------------------------------
A|--------------------------------------------
E|--------------------------------------------



JAB KUCH NA BANN SAKA TO MERA DILL BANA DIA
E|------------------------------------8--8--------------
B|--------9-----9-------9--9--9--9--------11-11-9--11-
G|--8--8-----10----10-------------------------------
D|--------------------------------------------------
A|--------------------------------------------------
E|--------------------------------------------------


O SAAATHI...EEEE.....TERE BINAA
E|--11-11-9--8--9--8--------8--9--8--
B|-----------------------11-11----------
G|-----------------------------------
D|-----------------------------------
A|-----------------------------------
E|-----------------------------------



 RAHIIIIII EEE,,,,EEEE,,,,,DIKHE NAAAA ,,,AAAA
E|-----11-13-11h13-9----8-----8---8h9--8--------------11-
B|--9--------------------11-----------------------11-11----
G|-----------------------------------------------
D|-----------------------------------------------
A|-----------------------------------------------
E|-----------------------------------------------


REPEAT ABOVE LINES ACCORDING TO SONG.

Notice-Copy paste is Not allowed without permisision of admin.

Get in touch with me (Facebook)
https://www.facebook.com/FuzailXiddiqui/

INSTAGRAM
https://www.instagram.com/fuzail_xiddiqui/

TWITTER
https://twitter.com/fuzail_xiddi


YouTube link (Do share it)
http://www.youtube.com/c/fuZaiLXiddiqui

BLOG(for Written Lessons)
http://fxguitar.blogspot.in/

Comments

  1. There is a reason why I bought a Mac, it was not to be one of the cool kids that wanted the best of the best. No it was because of the music production I do on it. Hours and hours sitting in front of my Mac copying, pasting, moving, deleting, hour after hour just beating on my Mac in a endless assault to get my work done. That is the key part, my work. I work from home, it is great, but even if it is from home it is still work and it still needs to get done. So my Mac, I have it because it is fast, gets the job done and comes back for more.

    But what happens when it doesn't want to do those things anymore?

    I move around massive amounts of information and yes even on the almighty Mac this can cause a problem after a while. Things fragment, programs get corrupted issues come up. My light speed Mac slows down to a crawl and all of the sudden I simply can not get any work done. Because I work from home there is no IT guy to call and ask to come fix it. No instead I have to figure out what is wrong. I am lucky, I did, but not after trying everything under the sun first and wasting countless hours looking for one program that can do what I needed instead of ten programs. One program to lead them all….okay that was a lame Lord of the rings reference, but that program was/is Detox My Mac. A simple to use program that did not just fix my issues, it put my Mac on overdrive again. A few clicks and my Mac was clean and ready to rock and roll again.

    Read more here:- http://detox-my-mac.com?duhhf9265hskfhf98346

    ReplyDelete

Post a Comment

Popular posts from this blog

Single String Guitar Songs Mashup - 10 Arijit Singh Songs | Easy One String Bollywood Hindi Songs Guitar Tabs

Tum Hi Aana Guitar Tabs with intro, Chords and Backing Track by Fuxino | Jubin Nautiyal | Marjaavaan | FxMusic

O Pata Nahi Ji Kaunsa Nasha Karta hai Guitar Tabs & Chords - Titliyan | Hardy Sandhu | Yaar Mera Titliyan Warga | Fx-Music | Fuxino