Posts

Showing posts from May, 2018

MADARI Guitar intro Tabs on Single String By Fuzail Xiddiqui

Image
E|--0--(0--0--0)--2---2h3---3p2---2p0--
B|-----------------------------------
G|-----------------------------------
D|-----------------------------------
A|-----------------------------------
E|-----------------------------------

E|--0--(0--0--0)--2---2h3---3p2---2p0--
B|-----------------------------------
G|-----------------------------------
D|-----------------------------------
A|-----------------------------------
E|-----------------------------------



E|--(0--0)--(0--2)--(2--2)--0--2--
B|--------------------------------------------------------------------
G|--------------------------------------------------------------------
D|--------------------------------------------------------------------
A|--------------------------------------------------------------------
E|--------------------------------------------------------------------


E|--(0--0)--(0--2)--(2--2)--0--2--
B|--------------------------------------------------------------------
G|----------------------------------------…