Posts

Showing posts from July, 2018

Pani Da Rang Guitar Tabs/Lead with Original Chords By FuZaiL Xiddiqui (FX-MUSIC)

Image
PANI DA...
E|----------7--7--10-7-----------
B|--8--10---------------8--10-10-
G|-----------------------------
D|-----------------------------
A|-----------------------------
E|-----------------------------

E|----------7--7--10-7-----------
B|--8--10---------------8--10-10-
G|-----------------------------
D|-----------------------------
A|-----------------------------
E|-----------------------------

MERI...
E|-----------
B|--8--7--8--
G|-----------
D|-----------
A|-----------
E|-----------

ANKHIYA JO...
E|-----------------------------------
B|--8--8--8--8--10-8--10-8--7--------
G|-------------------------------------9--9--
D|-----------------------------------
A|-----------------------------------
E|-----------------------------------

E|-----
B|-----
G|--7--
D|-----
A|-----
E|-----

ANKHIYA JO...
E|--------------------------------------
B|-----8--8--8--8--10-8--10-8--7--------
G|--9------------------------------------9--9--
D|--------------------------------------
A|------------------…

Chahu Mai Ya Na Guitar Tabs/Lead Single String by Fuzail xiddiqui | Chords | Strumming

Image
Chords - Am,G,F,E,C and one more Em is Used in Female Part.


Tuhi Ye .....
E|--0--8--7--8--7--5--7--7--5--3--3--5--7--5--5--
B|-----------------------------------------------
G|-----------------------------------------------
D|-----------------------------------------------
A|-----------------------------------------------
E|-----------------------------------------------

Apne to dil....
E|--0--8--7--8--7--5--7--7--5--3--3--5--7--5--5--
B|-----------------------------------------------
G|-----------------------------------------------
D|-----------------------------------------------
A|-----------------------------------------------
E|-----------------------------------------------

itna bata de.....
E|--12-12-12-10h/p12-10-10-10-10-10-10--8h/p10-8--8--8--8--8--7--8--7--5--8--7--
B|--------------------------------------------------------------------------
G|--------------------------------------------------------------------------
D|------------------------------------------------------…

Pehli Mohabbat Guitar Tabs By FuZaiL Xiddiqui (Fx-Music) | Darshan Raval

Image
INTRO(Nare NA Raa...)
E|-----12----------12-------------------------------
B|--14----14-12-14----14-12-12p14-10-10-10-9---9\10-
G|--------------------------------------------------
D|--------------------------------------------------
A|--------------------------------------------------
E|--------------------------------------------------


Mera Din Bhi Tu
E|--------------------
B|--10-9--10-12-10-10-
G|--------------------
D|--------------------
A|--------------------
E|--------------------

Meri Sham Tu...
E|--------------------
B|--10-9--10-12-10-10-
G|--------------------
D|--------------------
A|--------------------
E|--------------------


Mere Raat Ke...
E|--------------------------------
B|--10-10-9--12-12-10-9-----------
G|-----------------------------11-9--9--
D|--------------------------------
A|--------------------------------
E|--------------------------------


Meri Ahate...
E|--------------------
B|--10-9--10-12-10-10-
G|--------------------
D|--------------------
A|----------…