Skip to main content

Chahu Mai Ya Na Guitar Tabs/Lead Single String by Fuzail xiddiqui | Chords | Strumming

Chords - Am,G,F,E,C and one more Em is Used in Female Part.


Tuhi Ye .....
E|--0--8--7--8--7--5--7--7--5--3--3--5--7--5--5--
B|-----------------------------------------------
G|-----------------------------------------------
D|-----------------------------------------------
A|-----------------------------------------------
E|-----------------------------------------------

Apne to dil....
E|--0--8--7--8--7--5--7--7--5--3--3--5--7--5--5--
B|-----------------------------------------------
G|-----------------------------------------------
D|-----------------------------------------------
A|-----------------------------------------------
E|-----------------------------------------------

itna bata de.....
E|--12-12-12-10h/p12-10-10-10-10-10-10--8h/p10-8--8--8--8--8--7--8--7--5--8--7--
B|--------------------------------------------------------------------------
G|--------------------------------------------------------------------------
D|--------------------------------------------------------------------------
A|--------------------------------------------------------------------------
E|--------------------------------------------------------------------------

pair phi ye....
E|--12-12-12-10h/p12-10-10-10-10-10-10--8h/p10-8--8--8--8--8--7--8--7--5--8--7--
B|--------------------------------------------------------------------------
G|--------------------------------------------------------------------------
D|--------------------------------------------------------------------------
A|--------------------------------------------------------------------------
E|--------------------------------------------------------------------------


E|--5--4--
B|--------
G|--------
D|--------
A|--------
E|--------

Tu hi ye...
E|--0--8--7--8--7--5--7--7--5--3--3--5--7--5--5--5
B|-----------------------------------------------
G|-----------------------------------------------
D|-----------------------------------------------
A|-----------------------------------------------
E|-----------------------------------------------

Apne to dil ka...
E|--0--8--7--8--7--5--7--7--5--3--3--5--7--5--5--5
B|-----------------------------------------------
G|-----------------------------------------------
D|-----------------------------------------------
A|-----------------------------------------------
E|-----------------------------------------------


asi pahle kbhi...
E|--5--8--5--3--5--8--8--10-13-12-5--3---5\7--
B|--------------------------------------------
G|--------------------------------------------
D|--------------------------------------------
A|--------------------------------------------
E|--------------------------------------------

kisi se ahi Milne...
E|--5--8--5--3--5--8--8--10-13-12-5--3---5\7--
B|--------------------------------------------
G|--------------------------------------------
D|--------------------------------------------
A|--------------------------------------------
E|--------------------------------------------

Tu hi ye mujhko...
E|--0--8--7--8--7--5--7--7--5--3--3--5--7--5--5--5
B|-----------------------------------------------
G|-----------------------------------------------
D|-----------------------------------------------
A|-----------------------------------------------
E|-----------------------------------------------

Apne to dil ka....
E|--0--8--7--8--7--5--7--7--5--3--3--5--7--5--5--5
B|-----------------------------------------------
G|-----------------------------------------------
D|-----------------------------------------------
A|-----------------------------------------------
E|-----------------------------------------------


Chords-Am,G,F,E,C,Em

Strumming-DD-UDU-DD




REPEAT ABOVE LINES ACCORDING TO SONG STRUCTURE.


\=Slide
/=Slide Back
h=Hmmer
p=pull off
b=bend

for complete understanding please watch my tutorial video.
if you have any doubt/suggestion please ask in comment section below.

NOTE-if any Mistake/Correction is there in above notes please let me know.

THANKS FOR YOUR VISIT..



NOTE-IF YOU WANT TO ADD THESE NOTES ON YOUR PAGE/BLOG OR WEBSITE PLEASE INFORM ME ONCE.

Get in touch with me (Facebook)


INSTAGRAM

TWITTER


YouTube link (Do share it)


BACKING TRACK



FEEL FREE TO USE THIS TRACK BY GIVING CREDITS IN YOUR DESCRIPTION.

DONT MISSUSE IT.





Comments

  1. Sir cahu mai ya na ke written notes uplode kar dijiye please

    ReplyDelete
  2. Please tell how can I download the backing track??

    ReplyDelete
  3. I am also unable to download it sir...

    ReplyDelete
  4. You forgot to upload the STANZA. I need it. Please upload it soon. Please!!!!

    ReplyDelete
  5. Please post the tabs played in intro

    ReplyDelete

Post a comment

Popular posts from this blog

Tum Hi Aana Guitar Tabs with intro, Chords and Backing Track by Fuxino | Jubin Nautiyal | Marjaavaan | FxMusic

Tum Hi Aana Guitar Tabs Lesson with Cover Tum Hi Aana BACKING TRACK  (for practice) Watch my video for better understanding. Chords - Em,C,D,Am,Bm INTRO E|-----7--7--5-------------- B|--5-----------8--7--8--5-- G|-------------------------- D|-------------------------- A|-------------------------- E|-------------------------- E|-----7--7--5-------------- B|--5-----------8--7--8--5-- G|-------------------------- D|-------------------------- A|-------------------------- E|-------------------------- E|-5----5--5----------------- B|-------------8--7--5--7----- G|---7-----------------------7-- D|-------------------------- A|-------------------------- E|-------------------------- E|-------------------- B|-------------7--8--5-- G|--7--5--7----------- D|-------------------- A|-------------------- E|-------------------- TERE JAANE KA GUM E|--12-10----10------- B|----------13----13-12- G|-------------------- D|-------------------- A|-----

Single String Guitar Songs Mashup - 10 Arijit Singh Songs | Easy One String Bollywood Hindi Songs Guitar Tabs

Single String Guitar Songs Mashup - 10 Arijit Singh Songs | Easy One String Bollywood Hindi Songs Tabs   MASHUP COVER PiANO COVER LESSON VIDEO BACKING TRACK  (Available on Google Play, i-Tunes or Spotify) (Click This icon)                   TABS KABHI JO BADAL single string guitar tabs E|--5--7--8--7--8--10-7-- B|----------------------- G|----------------------- D|----------------------- A|----------------------- E|----------------------- E|--5--7--8--7--8--10-7-- B|----------------------- G|----------------------- D|----------------------- A|----------------------- E|----------------------- E|--5--7--8--7--8--10-7-- B|----------------------- G|----------------------- D|----------------------- A|----------------------- E|----------------------- E|--3--5--7--5--3--1--0-- B|----------------------- G|----------------------- D|----------------------- A|-----------------------

Tujhe Kitna Chahne Lage Hum Guitar Tabs Lesson w/ Cover & Chords | KABIR SINGH | FUXiNO

CHORD USED - B,G#m,E,F#,C#m,Dm TABS SYMBOLS   (/) Slide Down (\) Slide Up   (h) Hammer On   (p) Pull Off   (x) Muted E|----------------------------------- B|--2\5--4----------------------------- G|------------6--4--6\8----------- D|----------------------------------- A|----------------------------------- E|----------------------------------- E|----------------------------------- B|---------------------------------- G|---3--4--6--4--4--------------- D|----------------------------------- A|----------------------------------- E|----------------------------------- E|-------------------------------- B|--\7--7--7--7/------------------- G|-----------------\4-------------------- D|-------------------------------- A|-------------------------------- E|-------------------------------- E|-------------------------------- B|--------4hp5-------- G|-4--6---------6--6-- D|-------------------------------- A|-------------------------------- E|--------