Pani Da Rang Guitar Tabs/Lead with Original Chords By FuZaiL Xiddiqui (FX-MUSIC)

PANI DA...
E|----------7--7--10-7-----------
B|--8--10---------------8--10-10-
G|-----------------------------
D|-----------------------------
A|-----------------------------
E|-----------------------------

E|----------7--7--10-7-----------
B|--8--10---------------8--10-10-
G|-----------------------------
D|-----------------------------
A|-----------------------------
E|-----------------------------

MERI...
E|-----------
B|--8--7--8--
G|-----------
D|-----------
A|-----------
E|-----------

ANKHIYA JO...
E|-----------------------------------
B|--8--8--8--8--10-8--10-8--7--------
G|-------------------------------------9--9--
D|-----------------------------------
A|-----------------------------------
E|-----------------------------------

E|-----
B|-----
G|--7--
D|-----
A|-----
E|-----

ANKHIYA JO...
E|--------------------------------------
B|-----8--8--8--8--10-8--10-8--7--------
G|--9------------------------------------9--9--
D|--------------------------------------
A|--------------------------------------
E|--------------------------------------


MAHIYA NA...
E|--12-12-12-12-10-12p10-7--7--10-9--7-----------7--7--
B|---------------------------------------------------10-------
G|-----------------------------------------------
D|-----------------------------------------------
A|-----------------------------------------------
E|-----------------------------------------------

E|--12-12-12-12-10-12p10-7--7--10-9--7-----------7--7--
B|---------------------------------------------------10-------
G|-----------------------------------------------
D|-----------------------------------------------
A|-----------------------------------------------
E|-----------------------------------------------


RANJANA NA....
E|--7--7--------------------------7--7--------------
B|--------10-8--10-10-8------------------10-8--10-10-
G|-----------------------------9--------------------
D|--------------------------------------------
A|--------------------------------------------
E|--------------------------------------------

E|--7--7------------------------------------
B|--------10-8--10-10-8------------------
G|-----------------------------9-------------
D|--------------------------------------------
A|--------------------------------------------
E|--------------------------------------------

E|--------------------
B|--8--7--------------
G|--------9--7--9--9--
D|--------------------
A|--------------------
E|--------------------


KAMLI HO GAI...
E|--15-15-14-12-10-12-12-12-12-7--10-9--7-------7--7--
B|----------------------------------------------------10-------
G|--------------------------------------------------
D|--------------------------------------------------
A|--------------------------------------------------
E|--------------------------------------------------

E|--15-15-14-12-10-12-12-12-12-7--10-9--7-------7--7--
B|----------------------------------------------------10-------
G|--------------------------------------------------
D|--------------------------------------------------
A|--------------------------------------------------
E|--------------------------------------------------

BARISH BARKHA...
E|------------------------------7-----------------------------------
B|--10-10-10-10-10-8--10----10-8--7-----8--7-----------------
G|--------------------------------------------9--------9--7--7--9--9--
D|-----------------------------------------------------------
A|-----------------------------------------------------------
E|-----------------------------------------------------------

E|------------------------------7-----------------------------------
B|--10-10-10-10-10-8--10----10-8--7-----8--7-----------------
G|--------------------------------------------9--------9--7--7--9--9--
D|-----------------------------------------------------------
A|-----------------------------------------------------------
E|-----------------------------------------------------------


KOTHE UTHTHE....
E|--------------------------------------------------------------------------------
B|--8--8--7--7--8--8--7-----7--7--7-----7--7--------------------------------------
G|---------------------------9-----------9--------9--7--9--9--9--9--7----------7--7--9--9--
D|----------------------------------------------------------------------------9--------------
A|--------------------------------------------------------------------------------
E|--------------------------------------------------------------------------------

REPEAT ABOVE LINES ACCORDING TO SONG STRUCTURE.


ACCURATE CHORDS-
Em,D,C,A,Am,Bm7,Em7,Dadd11

intro chords - Em7,Dadd11

Tip-You Can Skip Bm7 Chord.





\=Slide
/=Slide Back
h=Hmmer
p=pull off
b=bend

for complete understanding please watch my tutorial video.
if you have any doubt/suggestion please ask in comment section below.

NOTE-if any Mistake/Correction is there in above notes please let me know.

THANKS FOR YOUR VISIT..



NOTE-IF YOU WANT TO ADD THESE NOTES ON YOUR PAGE/BLOG OR WEBSITE PLEASE INFORM ME ONCE.

Get in touch with me (Facebook)


INSTAGRAM

TWITTER


YouTube link (Do share it)









Comments

  1. Replies
    1. Thnkx sir
      I am learner
      I want to know about cord.. As like... E. Mager....?

      Delete
  2. Strumming and starting ka music sikhna hai sir

    ReplyDelete
  3. Sir intro Sikhs do please I play in my audition I also call your name in my audition

    ReplyDelete

Post a comment

Popular posts from this blog

Single String Guitar Songs Mashup - 10 Arijit Singh Songs | Easy One String Bollywood Hindi Songs Guitar Tabs

Tum Hi Aana Guitar Tabs with intro, Chords and Backing Track by Fuxino | Jubin Nautiyal | Marjaavaan | FxMusic

Tujhe Kitna Chahne Lage Hum Guitar Tabs Lesson w/ Cover & Chords | KABIR SINGH | FUXiNO