Pehli Mohabbat Guitar Tabs By FuZaiL Xiddiqui (Fx-Music) | Darshan Raval

INTRO(Nare NA Raa...)
E|-----12----------12-------------------------------
B|--14----14-12-14----14-12-12p14-10-10-10-9---9\10-
G|--------------------------------------------------
D|--------------------------------------------------
A|--------------------------------------------------
E|--------------------------------------------------


Mera Din Bhi Tu
E|--------------------
B|--10-9--10-12-10-10-
G|--------------------
D|--------------------
A|--------------------
E|--------------------

Meri Sham Tu...
E|--------------------
B|--10-9--10-12-10-10-
G|--------------------
D|--------------------
A|--------------------
E|--------------------


Mere Raat Ke...
E|--------------------------------
B|--10-10-9--12-12-10-9-----------
G|-----------------------------11-9--9--
D|--------------------------------
A|--------------------------------
E|--------------------------------


Meri Ahate...
E|--------------------
B|--10-9--10-12-10-10-
G|--------------------
D|--------------------
A|--------------------
E|--------------------

Tera Naam...
E|--------------------
B|--10-9--10-12-10-10-
G|--------------------
D|--------------------
A|--------------------
E|--------------------


Ye Baat....
E|-----------------------
B|--10-9--12-12-10-10-10-
G|-----------------------
D|-----------------------
A|-----------------------
E|-----------------------


Sau Saal Ka....
E|--12-10-9--------------
B|-----------12-10-10-12-
G|-----------------------
D|-----------------------
A|-----------------------
E|-----------------------


Ek din...
E|--12-12-10-9--------------
B|--------------12-10-10-12-
G|--------------------------
D|--------------------------
A|--------------------------
E|--------------------------

Jisme Teri...
E|--12-10-9--9--10-9--------
B|--------------------10-12-
G|--------------------------
D|--------------------------
A|--------------------------
E|--------------------------

Berukh si....
E|--12-10-9--------------
B|-----------12-10-10-12-
G|-----------------------
D|-----------------------
A|-----------------------
E|-----------------------


Ye Zindagi...
E|--12-12-10-9--------------
B|--------------12-10-10-12-
G|--------------------------
D|--------------------------
A|--------------------------
E|--------------------------


Teri Khushbu....
E|--12-10-9--9--10-12-12-12-
B|--------------------------
G|--------------------------
D|--------------------------
A|--------------------------
E|--------------------------


Meri Pehli Mohabbat.........O HO...o..O

E|-----12-10-12-10-9-----9--10-12-10-9--------------------------9--10-12-10-9--------
B|--10----------------12----------------12-10-10-10-10----10-12----------------12-10-
G|-----------------------------------------------------11----------------------------
D|-----------------------------------------------------------------------------------
A|-----------------------------------------------------------------------------------
E|-----------------------------------------------------------------------------------

(Nare NA Raa...)
E|-----12----------12-------------------------------
B|--14----14-12-14----14-12-12p14-10-10-10-9---9\10-
G|--------------------------------------------------
D|--------------------------------------------------
A|--------------------------------------------------
E|--------------------------------------------------

O Meri Jaa..
E|------------------12-
B|--10-12-10-10----
G|-----------------
D|-----------------
A|-----------------
E|-----------------


Tum Ho Kaha
E|------------------12-
B|--10-12-10-10----
G|-----------------
D|-----------------
A|-----------------
E|-----------------


Dhunde Tujhe.....
E|-----------------------------
B|--10-12-14-12-14-14-15-14-12-
G|-----------------------------
D|-----------------------------
A|-----------------------------
E|-----------------------------


Dasturiyaa...
E|------------------12-
B|--10-12-10-10----
G|-----------------
D|-----------------
A|-----------------
E|-----------------

Tum Ho Meri
E|------------------12-
B|--10-12-10-10----
G|-----------------
D|-----------------
A|-----------------
E|-----------------


Jo mai Kahu...
E|--12-12-14-12-12-
B|-----------------
G|-----------------
D|-----------------
A|-----------------
E|-----------------

Sun Lo Na Tum...
E|--9--9--10-10-12-
B|-----------------
G|-----------------
D|-----------------
A|-----------------
E|-----------------

Mai Ye Barr.....
E|-----------------------
B|--10-10-12-12-14-14-14-
G|-----------------------
D|-----------------------
A|-----------------------
E|-----------------------


Mai Hazar Baar....
E|--------------12-10-9--9--
B|--10-10-12-12-------------
G|--------------------------
D|--------------------------
A|--------------------------
E|--------------------------


Kehta Mai Jaau...
E|--9--12-12-14-10-9--10-12-
B|--------------------------
G|--------------------------
D|--------------------------
A|--------------------------
E|--------------------------


Meri Pehli Mohabbat.........O HO...o..O
E|-----12-10-12-10-9-----9--10-12-10-9--------------------------9--10-12-10-9--------
B|--10----------------12----------------12-10-10-10-10----10-12----------------12-10-
G|-----------------------------------------------------11----------------------------
D|-----------------------------------------------------------------------------------
A|-----------------------------------------------------------------------------------
E|-----------------------------------------------------------------------------------

(Nare NA Raa...)
E|-----12----------12-------------------------------
B|--14----14-12-14----14-12-12p14-10-10-10-9---9\10-
G|--------------------------------------------------
D|--------------------------------------------------
A|--------------------------------------------------
E|--------------------------------------------------


REPEAT ABOVE LINES ACCORDING TO SONG STRUCTURE.


\=Slide
/=Slide Back
h=Hmmer
p=pull off
b=bend

for complete understanding please watch my tutorial video.
if you have any doubt/suggestion please ask in comment section below.

NOTE-if any Mistake/Correction is there in above notes please let me know.

THANKS FOR YOUR VISIT..



NOTE-IF YOU WANT TO ADD THESE NOTES ON YOUR PAGE/BLOG OR WEBSITE PLEASE INFORM ME ONCE.

Get in touch with me (Facebook)


INSTAGRAM

TWITTER


YouTube link (Do share it)



Comments

Popular posts from this blog

Tum Hi Aana Guitar Tabs with intro, Chords and Backing Track by Fuxino | Jubin Nautiyal | Marjaavaan | FxMusic

Happy Birthday Guitar Tabs on Single String for Beginners | Written Notes | Fx-Music

Rata Lambiya Guitar Tabs & Chords - Easy Hindi Guita Songs For Beginners | Shershah Songs | Jubin Nautiyal