Posts

Showing posts from August, 2018

Dekhte Dekhte Guitar Chords Lesson | Atif Aslam | Batti Gul Meter Chalu | FuZaiL Xiddiqui | Fx-Music

Image
{Am}Rajj k rulaya
{F}Rajj k hasaya
{Em}Maine dil kho k
{F}Ishq {G}kamaya ​ {Am}Maanga jo usne
{F}Ek sitara
{Em}Humne zameen pe
{F}Chaand {G}bulaya ​ Jo {Am}aankhon se....{D} haayee...
woh jo {Am}aankho se ek pal na {D}ojhal huye
woh jo {Am}aankho se ek pal na {D}ojhal huye
{C}Lapata ho gaye {G}dekhte {Am}dekhte
{Am}Sochta hun,
{Am}Sochta hun k woh kitne {G}maasoom the
{Am}Sochta hun k woh kitne {G}maasoom the
{F}Kya se kya ho gaye {Am}Dekhte Dekhte ​ {Am}Sochta hun k woh kitne {D}maasoom the
{G}Kya se kya ho gaye {C}Dekhte {Am}Dekhte ​ {Am}Aate jaate the jo saansh {G}banke kabhi
(Am)Aate jaate the jo saansh {G}banke kabhi
{F}Woh hawa ho gaye {Am}dekhte dekhte
{F}Woh hawa ho gaye .... {Am}haaye..

ohh oho ohhhooooooo {{{C > G > C > G}}}


{F}Woh hawa ho gaye {Am}dekhte dekhte
{F}Dil nida ho gaye {Am}dekhte dekhte
{F}Lapata ho gaye {Am}dekhte dekhte
{F}kya se kya ho gaye {Am}dekhte dekhte ​ Jeene {Am}marne k hum the {D}wajah aur humhi
Jeene (Am)marne k hum the {D}wajah aur humhi
{G}Bewajah ho gaye {C}dekhte {Am}de…

AIRTEL RINGTONE Guitar Tabs/Lead By FuZaiL Xiddiqui | Fx Music

Image
E|-------------------10-
B|-----------------
G|--12-12-12-12----
D|-----------------
A|-----------------
E|-----------------

E|--------------------
B|--10-11-10---------10-
G|--------------12-10----
D|--------------------
A|--------------------
E|--------------------

E|-----------------------------------
B|------10--------------10-11-10----------
G|--12----12-10-12----------------12-10----
D|---------------------------------------------12-
A|-----------------------------------
E|-----------------------------------

E|--15-10-10-13-10-----------------------10-11-10----
B|----------------------13-11------11-13----------------13-
G|------------------------------12-------------------
D|--------------------------------------------
A|--------------------------------------------
E|--------------------------------------------

E|--------
B|--11-10-
G|--------
D|--------
A|--------
E|--------


E|-------------------10-
B|-----------------
G|--12-12-12-12----
D|-----------------
A|----------------…

Aashiqui-2 LOVE THEME Guitar Tabs/Lead By FuZaiL Xiddiqui

Image
E|-----------------------------------
B|-----7--8-----7--8-----------------
G|--9--------9-----------------------
D|--------------------9--10-10-9--10-
A|-----------------------------------
E|-----------------------------------

E|-----------------------------------
B|--------7--------7-----------------
G|--7--9-----7--9--------------------
D|--------------------10-10-10-9--9--
A|-----------------------------------
E|-----------------------------------

E|--------------------7--7--------------
B|--------------------------10-10-8--10-
G|-----7--9-----7--9--------------------
D|--10-------10-------------------------
A|--------------------------------------
E|--------------------------------------

E|--------------7--7--8--8-----
B|--7--7--------------------10-
G|--------8--8-----------------
D|-----------------------------
A|-----------------------------
E|-----------------------------


E|-----------------------------------
B|-----7--8-----7--8-----------------
G|--9--------9--------------…