Aashiqui2 LOVE THEME (Tum Hi Ho) Guitar Tabs/Lead By FuZaiL Xiddiqui

KARAOKE

E|-----------------------------------
B|-----7--8-----7--8-----------------
G|--9--------9-----------------------
D|--------------------9--10-10-9--10-
A|-----------------------------------
E|-----------------------------------

E|-----------------------------------
B|--------7--------7-----------------
G|--7--9-----7--9--------------------
D|--------------------10-10-10-9--9--
A|-----------------------------------
E|-----------------------------------

E|--------------------7--7--------------
B|--------------------------10-10-8--10-
G|-----7--9-----7--9--------------------
D|--10-------10-------------------------
A|--------------------------------------
E|--------------------------------------

E|--------------7--7--8--8-----
B|--7--7--------------------10-
G|--------8--8-----------------
D|-----------------------------
A|-----------------------------
E|-----------------------------


E|-----------------------------------
B|-----7--8-----7--8-----------------
G|--9--------9-----------------------
D|--------------------9--10-10-9--10-
A|-----------------------------------
E|-----------------------------------

E|-----------------------------------
B|--------7--------7-----------------
G|--7--9-----7--9--------------------
D|--------------------10-10-9-9--7--7\9
A|-----------------------------------
E|-----------------------------------

E|--------------------7--7--------------
B|--------------------------10-10-8--10-
G|-----7--9-----7--9--------------------
D|--10-------10-------------------------
A|--------------------------------------
E|--------------------------------------

E|--------------7--7--8--8-----
B|--7--7--------------------10-
G|--------8--8-----------------
D|-----------------------------
A|-----------------------------
E|-----------------------------

E|-----------------------------------
B|--------------------7--7-----------
G|--9--9--7--7--9--9--------7--7-----
D|--------------------------------9--
A|-----------------------------------
E|-----------------------------------

E|-----------------
B|-----------------
G|--------------9--
D|--9--9--10-10----
A|-----------------
E|-----------------

E|--------------------
B|-----7--7-----------
G|--9--------7--7-----
D|-----------------9--
A|--------------------
E|--------------------

E|-----------------------------------
B|-----------------------------------
G|-----------------------------------
D|--10-10-9--10-9--10-9--7-----9--9--
A|--------------------------10-------
E|-----------------------------------

Song lyrics here
E|--------------------------------------
B|--------------------------------------
G|-----------------7--------------------
D|--10-10-9--10-10----10-9--7--7--9--9--
A|--------------------------------------
E|--------------------------------------

E|--------------------------8--8--7--7-----7--7--11-11-12-12-7--7--------------------
B|-----------7--7-----7--7--------------10-------------------------10-10-8--10-8--7--
G|--7--9--9--------9-----------------------------------------------------------------
D|-----------------------------------------------------------------------------------
A|-----------------------------------------------------------------------------------
E|-----------------------------------------------------------------------------------

E|--7--------------7--------------------------------
B|-----8--10-8--10----8--10-7--10-8--7-----7--------
G|--------------------------------------9-----7--9--
D|--------------------------------------------------
A|--------------------------------------------------
E|--------------------------------------------------

E|-----------7--------------7--10-10-8--7-----
B|--7--8--10----8--10-8--10----------------10-
G|--------------------------------------------
D|--------------------------------------------
A|--------------------------------------------
E|--------------------------------------------

E|--------------------------------
B|--7--10-8--7-----7--------7-----
G|--------------9-----9--7-----9--
D|--------------------------------
A|--------------------------------
E|--------------------------------

REPEAT ABOVE LINES ACCORDING TO SONG STRUCTURE.

\=Slide
/=Slide Back
h=Hmmer
p=pull off
b=bend

for complete understanding please watch my tutorial video.
if you have any doubt/suggestion please ask in comment section below.

NOTE-if any Mistake/Correction is there in above notes please let me know.

THANKS FOR YOUR VISIT..



NOTE-IF YOU WANT TO ADD THESE NOTES ON YOUR PAGE/BLOG OR WEBSITE PLEASE INFORM ME ONCE.
WARNING-POSTING WITHOUT MY PERMISSION IS PROHIBTED.

Get in touch with me (Facebook)


INSTAGRAM

TWITTER


YouTube link (Do share it)




Comments

  1. COMMENT BHI KIA KARO AAP LOG

    ReplyDelete
    Replies
    1. Bhai Me toh sab jagah comment krta hu ...Bus aap hi sahara ho mera❤

      Delete
    2. mei bhi comment karti hu
      kabhi hii bhi bol diya kijiye,achha lagta hai

      Delete
  2. apke tutorials ke alava koi aur tutorial mujhe pasand hi nhi ata
    love you fx

    ReplyDelete
  3. Bhai tabs thode galt type kiya hai

    ReplyDelete
  4. খুব ভালোভাবে আপনি গিটারটা শিখাচ্ছেন ধন্যবাদ

    ReplyDelete
  5. This iss soooo good❤️ pleasee do samjhawan (Humpty Sharma Ki dhulhaniya ) also (like this, with tabs and notes)

    ReplyDelete

Post a Comment

Popular posts from this blog

Single String Guitar Songs Mashup - 10 Arijit Singh Songs | Easy One String Bollywood Hindi Songs Guitar Tabs

Tum Hi Aana Guitar Tabs with intro, Chords and Backing Track by Fuxino | Jubin Nautiyal | Marjaavaan | FxMusic

O Pata Nahi Ji Kaunsa Nasha Karta hai Guitar Tabs & Chords - Titliyan | Hardy Sandhu | Yaar Mera Titliyan Warga | Fx-Music | Fuxino