Posts

Showing posts from September, 2018

DHADAK Guitar Tabs/Notes By FuZaiL Xiddiqui | Fx-Music | ELECTRIC Guitar

Image
CHORDS USED IN MY VIDEO  {refer my video for better understanding}

Capo on 5th fret : Am,Em,G,C,Dm,E   {Transformed}

Strumming : D                                 {Simply Down Stroke}
Strumming : DD-UUU-D--(DU)     {Last (DU) Stroke is Filler)

TABS
E|--------------
B|--------------
G|-------10-9--10-
D|--12----------
A|--------------
E|--------------

E|--------------
B|--------------
G|--9--10-9-----
D|--------------10-
A|--------------
E|--------------

E|--------------
B|--------------
G|-------9-----9--
D|--10----12----
A|--------------
E|--------------

E|--------------------
B|--------------------
G|--9--12-10-9--------
D|--------------------12-11-
A|--------------------
E|--------------------


B|--------------
G|-------10-9--10-
D|--12----------
A|--------------
E|--------------

E|--------------
B|--------------
G|--9--10-9-----
D|----------------10-
A|--------------
E|--------------

E|--------------
B|--------------
G|-------9-----9--
D|--10----12----
A|--------------
E|--…

KISS ME Dairy Milk Guitar Tabs With LYRICS and Backing Track | Fx Music | Fuzail xiddiqui

Image
E|-------------------------------------------------------------
B|---------------------------------------------------------
G|-----------4--------------------------------------------
D|----5--7-----------------------------------------------
A|----------------------------------------------------
E|-------------------------------------------------------

KISS ME E|-------------------------------------------------------------
B|---------------------------------------------------------
G|----5-------5------------------------------------
D|--------7------------------------------------------
A|----------------------------------------------------
E|-------------------------------------------------------
CLOSE YOUR EYES E|-------------------------------------------------------------
B|--------5--6--5---------------------------------------------
G|----7-------------------------------------------
D|--------------------------------------------------
A|--------------------------------------------…