DHADAK Guitar Tabs/Notes By FuZaiL Xiddiqui | Fx-Music | ELECTRIC Guitar

CHORDS USED IN MY VIDEO  {refer my video for better understanding}

Capo on 5th fret : Am,Em,G,C,Dm,E   {Transformed}

Strumming : D                                 {Simply Down Stroke}
Strumming : DD-UUU-D--(DU)     {Last (DU) Stroke is Filler)

TABS
E|--------------
B|--------------
G|-------10-9--10-
D|--12----------
A|--------------
E|--------------

E|--------------
B|--------------
G|--9--10-9-----
D|--------------10-
A|--------------
E|--------------

E|--------------
B|--------------
G|-------9-----9--
D|--10----12----
A|--------------
E|--------------

E|--------------------
B|--------------------
G|--9--12-10-9--------
D|--------------------12-11-
A|--------------------
E|--------------------


B|--------------
G|-------10-9--10-
D|--12----------
A|--------------
E|--------------

E|--------------
B|--------------
G|--9--10-9-----
D|----------------10-
A|--------------
E|--------------

E|--------------
B|--------------
G|-------9-----9--
D|--10----12----
A|--------------
E|--------------

E|--------------------
B|--------------------
G|--9--12-10-9--------
D|-------------------12--
A|--------------------
E|--------------------



E|--------------------------
B|-----13-11---10----11---------10-----
G|------------------------------12-------
D|--12-----------------------------------------10-
A|--------------------------
E|--------------------------

E|--------------------------
B|-----11-10-8--10--------8-----
G|-----------------------10-------
D|--10--------------------------------8--
A|--------------------------
E|--------------------------

E|--------------------------------------
B|-----8--6--5--6--5--------5--6--5--------
G|------------------------7---------------7--9--
D|--8-----------------------------------
A|--------------------------------------
E|--------------------------------------


E|---------------------------------------------------------
B|------------------------------------------------10-11-10---
G|--7--9--10-12-10-12-10-12-10-12----------------
D|-------------------------------------------------------
A|-------------------------------------------------------
E|--------------------------------------------------------

E|-------------------------------------------------
B|-----10-11-10----------------------------------
G|--12----------12-10-9--------9--12-10-9--------
D|---------------------------12----------------------12-11-
A|---------------------------------------------------
E|--------------------------------------------------

​E|---------------------------------------------------------
B|----------------------------------------------10-11-10---
G|-----9--10-12-10-12-10-12-10-12----------------
D|-12------------------------------------------------------
A|------------------------------------------------------
E|--------------------------------------------------------

E|-------------------------------------------------
B|-----10-11-10----------------------------------
G|--12----------12-10-9--------9--12-10-9--------
D|---------------------------12-----------------------12-11---12
A|---------------------------------------------------
E|--------------------------------------------------


REPEAT ABOVE LINES ACCORDING TO SONG STRUCTURE.

\=Slide
/=Slide Back
h=Hmmer
p=pull off
b=bend

for complete understanding please watch my tutorial video.
if you have any doubt/suggestion please ask in comment section below.

NOTE-if any Mistake/Correction is there in above notes please let me know.

THANKS FOR YOUR VISIT..




WARNING-POSTING WITHOUT MY PERMISSION IS PROHIBITED (copy paste is not allowed)

Get in touch with me (Facebook)


INSTAGRAM

TWITTER


YouTube link (Do share it)

http://www.youtube.com/c/fuZaiLXiddiqui



DHADAK SINGLE STRING GUITAR TABS (FOR BEGINNERS)






Comments

Post a Comment

Popular posts from this blog

Single String Guitar Songs Mashup - 10 Arijit Singh Songs | Easy One String Bollywood Hindi Songs Guitar Tabs

Tum Hi Aana Guitar Tabs with intro, Chords and Backing Track by Fuxino | Jubin Nautiyal | Marjaavaan | FxMusic

O Pata Nahi Ji Kaunsa Nasha Karta hai Guitar Tabs & Chords - Titliyan | Hardy Sandhu | Yaar Mera Titliyan Warga | Fx-Music | Fuxino