GUITAR MINI COURSE BOOK FOR ABSOLUTE BEGINNERS by FUXiNO | FX-MUSIC STORE

Image
GUITAR MINI COURSE FRO ABSOLUTE BEGINNERS
CLICK HERE

Guitar is very popular and most loved instrument of all time, everyone wants to learn guitar but only a few of them are able to do it, because people do not know how to solve the difficulties in the initial stage of learning, so they fed up and stop learning. But if you have a proper guidance you can easily learn the guitar. Many of you start learning guitar from YouTube videos but it takes a lot of time to find a good tutorials at one place. So, you should take this mini course and It will definitely give you all basics of guitar in one book which will save your time and you will feel confident.
About This Mini Guitar Book This book is made for those who has just started playing guitar, and I have shared all the basics in this one mini guitar course book with few tips for absolute beginners. It will save your time and you will feel confident after reading this book.
NOTE - I have covered only basic concepts in this book, it is not …

KISS ME Dairy Milk Guitar Tabs With LYRICS and Backing Track | Fx Music | Fuzail xiddiqui

E|-------------------------------------------------------------
B|---------------------------------------------------------
G|-----------4--------------------------------------------
D|----5--7-----------------------------------------------
A|----------------------------------------------------
E|-------------------------------------------------------

KISS ME
E|-------------------------------------------------------------
B|---------------------------------------------------------
G|----5-------5------------------------------------
D|--------7------------------------------------------
A|----------------------------------------------------
E|-------------------------------------------------------

CLOSE YOUR EYES
E|-------------------------------------------------------------
B|--------5--6--5---------------------------------------------
G|----7-------------------------------------------
D|--------------------------------------------------
A|----------------------------------------------------
E|-------------------------------------------------------

MISS ME
E|-------------------------------------------------------------
B|---------------------------------------------------------
G|----5-------5------------------------------------
D|--------7------------------------------------------
A|----------------------------------------------------
E|-------------------------------------------------------

CLOSE YOUR EYES
E|-------------------------------------------------------------
B|--------5--6--5---------------------------------------------
G|----7-------------------------------------------
D|--------------------------------------------------
A|----------------------------------------------------
E|-------------------------------------------------------

I CAN READ YOUR LIPS
E|-------------------------------------------------------------
B|-------------5-------5-------------------------------------
G|----5---7-------7-------5--------------------------
D|--------------------------------------------------
A|----------------------------------------------------
E|-------------------------------------------------------



ON YOUR FINGERTIPS
E|-------------------------------------------------------------
B|---------------------------------------------------------
G|----5---5---7--5---7---4-----------------------------
D|--------------------------------------------------
A|----------------------------------------------------
E|-------------------------------------------------------



I CAN FEEL YOUR SMILE
E|-------------------------------------------------------------
B|--------------5---8----------------------------------------
G|-----5---7------------5---------------------------
D|--------------------------------------------------
A|----------------------------------------------------
E|-------------------------------------------------------



COME ON MY LIPS
E|-------------------------------------------------------------
B|---------------6------------------------------------------
G|------5---7-------4-------------------------------
D|--------------------------------------------------
A|----------------------------------------------------
E|-------------------------------------------------------


HAPPINESS IN YOUR EYES
E|-------------------------------------------------------------
B|---------------6--6---5--6---5-------------------------------
G|------------------------------------7-----------
D|------5---7-----------------------------------------
A|----------------------------------------------------
E|-------------------------------------------------------


E|-------------------------------------------------------------
B|---------------------------------------------------------
G|-----------4--------------------------------------------
D|----5--7-----------------------------------------------
A|----------------------------------------------------
E|-------------------------------------------------------


KISS ME
E|-------------------------------------------------------------
B|---------------------------------------------------------
G|----5-------5------------------------------------
D|--------7------------------------------------------
A|----------------------------------------------------
E|-------------------------------------------------------

CLOSE YOUR EYES
E|-------------------------------------------------------------
B|--------5--6--5---------------------------------------------
G|----7-------------------------------------------
D|--------------------------------------------------
A|----------------------------------------------------
E|-------------------------------------------------------

MISS ME
E|-------------------------------------------------------------
B|---------------------------------------------------------
G|----5-------5------------------------------------
D|--------7------------------------------------------
A|----------------------------------------------------
E|-------------------------------------------------------

CLOSE YOUR EYES
E|-------------------------------------------------------------
B|--------5--6--5---------------------------------------------
G|----7-------------------------------------------
D|--------------------------------------------------
A|----------------------------------------------------
E|-------------------------------------------------------

KISS ME
E|-------------------------------------------------------------
B|---------------------------------------------------------
G|----5-------5------------------------------------
D|--------7------------------------------------------
A|----------------------------------------------------
E|-------------------------------------------------------


REPEAT ABOVE LINES ACCORDING TO SONG STRUCTURE.

\=Slide
/=Slide Back
h=Hmmer
p=pull off
b=bend

for complete understanding please watch my tutorial video.
if you have any doubt/suggestion please ask in comment section below.

NOTE-if any Mistake/Correction is there in above notes please let me know.

THANKS FOR YOUR VISIT..




WARNING-POSTING WITHOUT MY PERMISSION IS PROHIBITED (copy paste is not allowed)

Get in touch with me (Facebook)


INSTAGRAM

TWITTER


YouTube link (Do share it)



BACKING TRACK



NOTE - Feel Free to use this backing track by Giving credits of Producer of this music.

Warning - Don't Miss-use it.

Comments

  1. Great and thank you so much
    But also, you should add a background music button like other lyrics websites do or just add the background music video on every blog

    ReplyDelete
  2. just love the piece.. amazing

    ReplyDelete
  3. fx music bhai girls like you ke tabs bhi uplod ker do plssss

    ReplyDelete

Post a comment

Populer Posts

Despacito Guitar Tabs/Lead Lesson in Hindi | Luis Fonsi | Daddy Yankee | Justin Bieber

O O JANE JANA GUITAR TABS SINGLE STRING AND MULTISTRING

Tum Hi Aana Guitar Tabs with intro, Chords and Backing Track by Fuxino | Jubin Nautiyal | Marjaavaan | FxMusic