Skip to main content

KISS ME Dairy Milk Guitar Tabs With LYRICS and Backing Track | Fx Music | Fuzail xiddiqui

E|-------------------------------------------------------------
B|---------------------------------------------------------
G|-----------4--------------------------------------------
D|----5--7-----------------------------------------------
A|----------------------------------------------------
E|-------------------------------------------------------

KISS ME
E|-------------------------------------------------------------
B|---------------------------------------------------------
G|----5-------5------------------------------------
D|--------7------------------------------------------
A|----------------------------------------------------
E|-------------------------------------------------------

CLOSE YOUR EYES
E|-------------------------------------------------------------
B|--------5--6--5---------------------------------------------
G|----7-------------------------------------------
D|--------------------------------------------------
A|----------------------------------------------------
E|-------------------------------------------------------

MISS ME
E|-------------------------------------------------------------
B|---------------------------------------------------------
G|----5-------5------------------------------------
D|--------7------------------------------------------
A|----------------------------------------------------
E|-------------------------------------------------------

CLOSE YOUR EYES
E|-------------------------------------------------------------
B|--------5--6--5---------------------------------------------
G|----7-------------------------------------------
D|--------------------------------------------------
A|----------------------------------------------------
E|-------------------------------------------------------

I CAN READ YOUR LIPS
E|-------------------------------------------------------------
B|-------------5-------5-------------------------------------
G|----5---7-------7-------5--------------------------
D|--------------------------------------------------
A|----------------------------------------------------
E|-------------------------------------------------------



ON YOUR FINGERTIPS
E|-------------------------------------------------------------
B|---------------------------------------------------------
G|----5---5---7--5---7---4-----------------------------
D|--------------------------------------------------
A|----------------------------------------------------
E|-------------------------------------------------------



I CAN FEEL YOUR SMILE
E|-------------------------------------------------------------
B|--------------5---8----------------------------------------
G|-----5---7------------5---------------------------
D|--------------------------------------------------
A|----------------------------------------------------
E|-------------------------------------------------------



COME ON MY LIPS
E|-------------------------------------------------------------
B|---------------6------------------------------------------
G|------5---7-------4-------------------------------
D|--------------------------------------------------
A|----------------------------------------------------
E|-------------------------------------------------------


HAPPINESS IN YOUR EYES
E|-------------------------------------------------------------
B|---------------6--6---5--6---5-------------------------------
G|------------------------------------7-----------
D|------5---7-----------------------------------------
A|----------------------------------------------------
E|-------------------------------------------------------


E|-------------------------------------------------------------
B|---------------------------------------------------------
G|-----------4--------------------------------------------
D|----5--7-----------------------------------------------
A|----------------------------------------------------
E|-------------------------------------------------------


KISS ME
E|-------------------------------------------------------------
B|---------------------------------------------------------
G|----5-------5------------------------------------
D|--------7------------------------------------------
A|----------------------------------------------------
E|-------------------------------------------------------

CLOSE YOUR EYES
E|-------------------------------------------------------------
B|--------5--6--5---------------------------------------------
G|----7-------------------------------------------
D|--------------------------------------------------
A|----------------------------------------------------
E|-------------------------------------------------------

MISS ME
E|-------------------------------------------------------------
B|---------------------------------------------------------
G|----5-------5------------------------------------
D|--------7------------------------------------------
A|----------------------------------------------------
E|-------------------------------------------------------

CLOSE YOUR EYES
E|-------------------------------------------------------------
B|--------5--6--5---------------------------------------------
G|----7-------------------------------------------
D|--------------------------------------------------
A|----------------------------------------------------
E|-------------------------------------------------------

KISS ME
E|-------------------------------------------------------------
B|---------------------------------------------------------
G|----5-------5------------------------------------
D|--------7------------------------------------------
A|----------------------------------------------------
E|-------------------------------------------------------


REPEAT ABOVE LINES ACCORDING TO SONG STRUCTURE.

\=Slide
/=Slide Back
h=Hmmer
p=pull off
b=bend

for complete understanding please watch my tutorial video.
if you have any doubt/suggestion please ask in comment section below.

NOTE-if any Mistake/Correction is there in above notes please let me know.

THANKS FOR YOUR VISIT..




WARNING-POSTING WITHOUT MY PERMISSION IS PROHIBITED (copy paste is not allowed)

Get in touch with me (Facebook)


INSTAGRAM

TWITTER


YouTube link (Do share it)



BACKING TRACK



NOTE - Feel Free to use this backing track by Giving credits of Producer of this music.

Warning - Don't Miss-use it.

Comments

  1. Great and thank you so much
    But also, you should add a background music button like other lyrics websites do or just add the background music video on every blog

    ReplyDelete
  2. just love the piece.. amazing

    ReplyDelete
  3. fx music bhai girls like you ke tabs bhi uplod ker do plssss

    ReplyDelete
  4. Download kaise kare backing track ??

    ReplyDelete

Post a comment

Popular posts from this blog

Tum Hi Aana Guitar Tabs with intro, Chords and Backing Track by Fuxino | Jubin Nautiyal | Marjaavaan | FxMusic

Tum Hi Aana Guitar Tabs Lesson with Cover

Tum Hi Aana BACKING TRACK (for practice)

Watch my video for better understanding.


Chords - Em,C,D,Am,Bm

INTRO

E|-----7--7--5--------------
B|--5-----------8--7--8--5--
G|--------------------------
D|--------------------------
A|--------------------------
E|--------------------------

E|-----7--7--5--------------
B|--5-----------8--7--8--5--
G|--------------------------
D|--------------------------
A|--------------------------
E|--------------------------

E|-5----5--5-----------------
B|-------------8--7--5--7-----
G|---7-----------------------7--
D|--------------------------
A|--------------------------
E|--------------------------


E|--------------------
B|-------------7--8--5--
G|--7--5--7-----------
D|--------------------
A|--------------------
E|--------------------


TERE JAANE KA GUM

E|--12-10----10-------
B|----------13----13-12-
G|--------------------
D|--------------------
A|--------------------
E|--------------------


E|--12-10----10-------

Single String Guitar Songs Mashup - 10 Arijit Singh Songs | Easy One String Bollywood Hindi Songs Guitar Tabs

Single String Guitar Songs Mashup - 10 Arijit Singh Songs | Easy One String Bollywood Hindi Songs Tabs

MASHUP COVER


PiANO COVER


LESSON VIDEO



BACKING TRACK 
(Available on Google Play, i-Tunes or Spotify)
(Click This icon)



TABS
KABHI JO BADAL single string guitar tabs
E|--5--7--8--7--8--10-7-- B|----------------------- G|----------------------- D|----------------------- A|----------------------- E|-----------------------
E|--5--7--8--7--8--10-7-- B|----------------------- G|----------------------- D|----------------------- A|----------------------- E|-----------------------

E|--5--7--8--7--8--10-7-- B|----------------------- G|----------------------- D|----------------------- A|----------------------- E|-----------------------

E|--3--5--7--5--3--1--0-- B|----------------------- G|----------------------- D|----------------------- A|----------------------- E|-----------------------

PHIR MOHABBAT single string guitar tabs
E|--0--5--5--5--3--3--5--5--7--7--7--8--8--8\10-10-7--7/5-- B|----------------…

Tujhe Kitna Chahne Lage Hum Guitar Tabs Lesson w/ Cover & Chords | KABIR SINGH | FUXiNO

CHORD USED - B,G#m,E,F#,C#m,Dm

TABS

SYMBOLS (/) Slide Down (\) Slide Up   (h) Hammer On   (p) Pull Off   (x) Muted

E|-----------------------------------
B|--2\5--4-----------------------------
G|------------6--4--6\8-----------
D|-----------------------------------
A|-----------------------------------
E|-----------------------------------


E|-----------------------------------
B|----------------------------------
G|---3--4--6--4--4---------------
D|-----------------------------------
A|-----------------------------------
E|-----------------------------------


E|--------------------------------
B|--\7--7--7--7/-------------------
G|-----------------\4--------------------
D|--------------------------------
A|--------------------------------
E|--------------------------------

E|--------------------------------
B|--------4hp5--------
G|-4--6---------6--6--
D|--------------------------------
A|--------------------------------
E|--------------------------------

IT TAKES A-LOT OF EFFORT TO MAKE…