Posts

Showing posts from October, 2018

Tune Mere Jana "Emptiness" Guitar Tabs & Chords | Bakicng Track | FuZaiL Xiddiqui | FX MUSIC

Image
CHORDS - F,Am,A#,C

STRUMMING - DD-UU-DUD



TABS
(watch my video for better understanding)

E|------------
B|------------
G| -----5---5-
D| 2\7---7---
A|-----------
E|-------------


 ------------  --------3---  ----2-5---5-  3-3---------  ------------  ------------

 ------------------------  ------------------------  --5-3-2-------2-----2---  3-------5-3-5---5-5---5-  ------------------------  ------------------------

 --------
 --------
 --5---5-
 7---7---
 --------
 --------


 ------------  --------3---  ----2-5---5-  3-3---------  ------------  ------------

 ------------------------  ------------------------  --5-3-2-------2-----2---  3-------5-3-5---5-5---5-  ------------------------  ------------------------

 ------------  5-5-6-5-----  ------------7-5-  ------------  ------------  ------------

 ------------  ----6-5-----  --5-----7-5-  7-----------  ------------  ------------
 ---------------------  ----8\10-6-6--8\10--8-6-5-  5-5-----------7---------  ----------------------  --------…

Safar Bhuwan Bam Guitar Chords and Tabs(Notes) By FuZaiL Xiddiqui | FxMusic

Image
CHORDS
Dm,Am,C,G,A#,A,F   (Chords to play full song)

TABS (with Chord Progressions)
Safar kaisa hai ye safar
(Dm>Am>C>G)
E|--------------------------------
B|------------------5--5------------
G|--5--5\7--7--7---------7--5--------
D|--------------------------------------7--5--
A|--------------------------------
E|--------------------------------


Manzilo ki na hai koi khabar
(Dm>Am>C>G)
E|--------------------------------
B|--------------------5--5------------
G|-5-5--5\7--7--7---------7--5--------
D|--------------------------------------7--5--
A|--------------------------------
E|--------------------------------

Safar kaisa hai ye safar
(Dm>Am>C>G)
E|--------------------------------
B|------------------5--5------------
G|--5--5\7--7--7---------7--5--------
D|--------------------------------------7--5--
A|--------------------------------
E|--------------------------------


Manzilo ki na hai koi khabar
(Dm>Am>C>G)
E|--------------------------------
B|-----------…

Dekhte Dekhte Guitar Tabs/Notes With Chords | Atif Aslam | FuZaiL Xiddiqui

Image
E|--------------------
B|--8--11-10-8-------8--
G|-----------------10----
D|--------------------
A|--------------------
E|--------------------

E|--------------------------
B|--8--11-10-8-----8--------
G|------------------10----10-7--
D|--------------------------
A|--------------------------
E|--------------------------

E|--------------------------------------
B|----------------10-10-8--------------10-10-8--
G|--7--8--10----------------7--8--10----------
D|--------------------------------------
A|--------------------------------------
E|--------------------------------------

E|--------------------
B|--8--11-10-8-----8--
G|------------------10----
D|--------------------
A|--------------------
E|--------------------

E|--------------------------
B|--8--11-10-8-----8--------
G|------------------10----10-7--
D|--------------------------
A|--------------------------
E|--------------------------

E|--------------------------------------
B|----------------10-10-8--------------10-10-8--