GUITAR MINI COURSE BOOK FOR ABSOLUTE BEGINNERS by FUXiNO | FX-MUSIC STORE

Image
GUITAR MINI COURSE FRO ABSOLUTE BEGINNERS
CLICK HERE

Guitar is very popular and most loved instrument of all time, everyone wants to learn guitar but only a few of them are able to do it, because people do not know how to solve the difficulties in the initial stage of learning, so they fed up and stop learning. But if you have a proper guidance you can easily learn the guitar. Many of you start learning guitar from YouTube videos but it takes a lot of time to find a good tutorials at one place. So, you should take this mini course and It will definitely give you all basics of guitar in one book which will save your time and you will feel confident.
About This Mini Guitar Book This book is made for those who has just started playing guitar, and I have shared all the basics in this one mini guitar course book with few tips for absolute beginners. It will save your time and you will feel confident after reading this book.
NOTE - I have covered only basic concepts in this book, it is not …

Dekhte Dekhte Guitar Tabs/Notes With Chords | Atif Aslam | FuZaiL Xiddiqui






E|--------------------
B|--8--11-10-8-------8--
G|-----------------10----
D|--------------------
A|--------------------
E|--------------------

E|--------------------------
B|--8--11-10-8-----8--------
G|------------------10----10-7--
D|--------------------------
A|--------------------------
E|--------------------------

E|--------------------------------------
B|----------------10-10-8--------------10-10-8--
G|--7--8--10----------------7--8--10----------
D|--------------------------------------
A|--------------------------------------
E|--------------------------------------

E|--------------------
B|--8--11-10-8-----8--
G|------------------10----
D|--------------------
A|--------------------
E|--------------------

E|--------------------------
B|--8--11-10-8-----8--------
G|------------------10----10-7--
D|--------------------------
A|--------------------------
E|--------------------------

E|--------------------------------------
B|----------------10-10-8--------------10-10-8--
G|--7--8--10----------------7--8--10----------
D|--------------------------------------
A|--------------------------------------
E|--------------------------------------


E|--8--8--10-10-10-8-----------------
B|----------------------------11-10-11-10-8--
G|-----------------------------------
D|-----------------------------------
A|-----------------------------------
E|-----------------------------------



E|--8--8--10-10-10-10-10-12------12-12-12-
B|------------------------------------11----------
G|--------------------------------------
D|--------------------------------------
A|--------------------------------------
E|--------------------------------------



E|--8--8--10-10-10-10-10-12---------12-12-12-
B|------------------------------------11----------
G|--------------------------------------
D|--------------------------------------
A|--------------------------------------
E|--------------------------------------


E|--10-12-13-13-13-13-13-10----------------
B|-------------------------------------11-10-11-10-8--
G|-----------------------------------------
D|-----------------------------------------


E|-----------------------------------------
B|--6-----8--8--------------------------
G|-----7-----------------------------------
D|-----------------------------------------
A|-----------------------------------------
E|-----------------------------------------

E|-----------------------------------------
B|--6-----8--8--8--8--8--10-6--8--10-8--10-
G|-----7-----------------------------------
D|-----------------------------------------
A|-----------------------------------------
E|-----------------------------------------


E|----------------------8--10-10-10-------------
B|--8--10-11-11-11------------------10-11-10-8--
G|-----------------------------------------



E|--8--8--10-10-10-10-10-12------12-12-12-
B|-------------------------------------11----------
G|--------------------------------------
D|--------------------------------------
A|--------------------------------------
E|--------------------------------------

E|--8--8--10-10-10-10-10-12------12-12-12-
B|--------------------------------------11----------
G|--------------------------------------
D|--------------------------------------
A|--------------------------------------
E|--------------------------------------



E|--10-12-13-13-13-13-8--13-10----------------
B|------------------------------------------11-10-11-10-8--
G|--------------------------------------------
D|--------------------------------------------
A|--------------------------------------------
E|--------------------------------------------


important - These notes are arranged on (Gm) for those who has not having cutaway guitar or having short guitar, if you want to play like mine (Am) just move all notes 2 ftret up. so your song will start from 10th fret.



REPEAT ABOVE LINES ACCORDING TO SONG STRUCTURE.

\=Slide
/=Slide Back
h=Hmmer
p=pull off
b=bend

for complete understanding please watch my tutorial video.
if you have any doubt/suggestion please ask in comment section below.

NOTE-if any Mistake/Correction is there in above notes please let me know.

THANKS FOR YOUR VISIT..




WARNING-POSTING WITHOUT MY PERMISSION IS PROHIBITED (copy paste is not allowed)

Get in touch with me (Facebook)


INSTAGRAM

TWITTER


YouTube link (Do share it)






DEKHTE DEKHTE GUITAR CHORDS










Comments

  1. Fx please chords slag karke link in description pe do

    ReplyDelete
  2. Sir
    Tune Mere Jana "Emptiness" Tabs..k link upload kar do..pls.

    ReplyDelete
  3. Bro please one video on our natinal anthem

    ReplyDelete
  4. Bhai Karachi doriyan strumming without chak

    ReplyDelete
  5. Sir aapne jo number k bich jo dash diya h wo smjh ni aa rha h usse kaise bajana h

    ReplyDelete
  6. Sir chords ka alag video banao n... fir hume background music lagake bajane me asani hoti hai...

    ReplyDelete

Post a comment

Populer Posts

Despacito Guitar Tabs/Lead Lesson in Hindi | Luis Fonsi | Daddy Yankee | Justin Bieber

O O JANE JANA GUITAR TABS SINGLE STRING AND MULTISTRING

Tum Hi Aana Guitar Tabs with intro, Chords and Backing Track by Fuxino | Jubin Nautiyal | Marjaavaan | FxMusic