GUITAR MINI COURSE BOOK FOR ABSOLUTE BEGINNERS by FUXiNO | FX-MUSIC STORE

Image
GUITAR MINI COURSE FRO ABSOLUTE BEGINNERS
CLICK HERE

Guitar is very popular and most loved instrument of all time, everyone wants to learn guitar but only a few of them are able to do it, because people do not know how to solve the difficulties in the initial stage of learning, so they fed up and stop learning. But if you have a proper guidance you can easily learn the guitar. Many of you start learning guitar from YouTube videos but it takes a lot of time to find a good tutorials at one place. So, you should take this mini course and It will definitely give you all basics of guitar in one book which will save your time and you will feel confident.
About This Mini Guitar Book This book is made for those who has just started playing guitar, and I have shared all the basics in this one mini guitar course book with few tips for absolute beginners. It will save your time and you will feel confident after reading this book.
NOTE - I have covered only basic concepts in this book, it is not …

Safar Bhuwan Bam Guitar Chords and Tabs(Notes) By FuZaiL Xiddiqui | FxMusic

CHORDS
Dm,Am,C,G,A#,A,F   (Chords to play full song)

TABS (with Chord Progressions)
Safar kaisa hai ye safar
(Dm>Am>C>G)
E|--------------------------------
B|------------------5--5------------
G|--5--5\7--7--7---------7--5--------
D|--------------------------------------7--5--
A|--------------------------------
E|--------------------------------


Manzilo ki na hai koi khabar
(Dm>Am>C>G)
E|--------------------------------
B|--------------------5--5------------
G|-5-5--5\7--7--7---------7--5--------
D|--------------------------------------7--5--
A|--------------------------------
E|--------------------------------

Safar kaisa hai ye safar
(Dm>Am>C>G)
E|--------------------------------
B|------------------5--5------------
G|--5--5\7--7--7---------7--5--------
D|--------------------------------------7--5--
A|--------------------------------
E|--------------------------------


Manzilo ki na hai koi khabar
(Dm>Am>C>G)
E|--------------------------------
B|-----------------------5--5------------
G|-5-5-5--5\7--7--7----------7--5--------
D|--------------------------------------7--5--
A|--------------------------------
E|--------------------------------


​Rasto se meri gahrii yaari ho gai
(Dm>A#>F>C)
E|--5--5--------------------------------------
B|--------8--6--5-----------------------------
G|-----------------7--7--5--7--7--7-----------
D|----------------------------------------7--7---
A|--------------------------------------------
E|--------------------------------------------

Jo Farz Se Bhara Tha Basta Wo Bhi Khali Ho Gaya
(Dm>A#>F>C)
E|----------5--5--------------------------------
B|------------------8--6--5-----------------------
G|-------------------------------7-7-5--5\7--7--7--------
D|--7--7-7----------------------------------------------7--7--
A|--------------------------------------------
E|--------------------------------------------

Bura hai zamana tu chal na kar agar magar
(Dm>C>A#>C)
E|--------------------------------------------
B|--8--10--8\10--6--8--6\8---5--6--5-5----------
G|------------------------------------------------7-7--5--5--
D|--------------------------------------------
A|--------------------------------------------
E|--------------------------------------------

Safar kaisa hai ye safar
(Dm>Am>C>G)
E|--------------------------------
B|------------------5--5------------
G|--5--5\7--7--7---------7--5--------
D|--------------------------------------7--5--
A|--------------------------------
E|--------------------------------


Manzilo ki na hai koi khabar
(Dm>Am>C>G)
E|--------------------------------
B|--------------------5--5------------
G|-5-5--5\7--7--7---------7--5--------
D|--------------------------------------7--5--
A|--------------------------------
E|--------------------------------

Safar kaisa hai ye safar
(Dm>Am>C>G)
E|--------------------------------
B|------------------5--5------------
G|--5--5\7--7--7---------7--5--------
D|--------------------------------------7--5--
A|--------------------------------
E|--------------------------------


Manzilo ki na hai koi khabar
(Dm>Am>C>G)
E|--------------------------------
B|-----------------------5--5------------
G|-5-5-5--5\7--7--7----------7--5--------
D|--------------------------------------7--5--
A|--------------------------------
E|--------------------------------



important - These notes are not same as played in my video, I have arranged this to play on acoustic guitar because most of my viewers having acoustic guitar)


REPEAT ABOVE LINES ACCORDING TO SONG STRUCTURE.

\=Slide
/=Slide Back
h=Hmmer
p=pull off
b=bend

for complete understanding please watch my tutorial video.
if you have any doubt/suggestion please ask in comment section below.

NOTE-if any Mistake/Correction is there in above notes please let me know.

THANKS FOR YOUR VISIT..




WARNING-POSTING WITHOUT MY PERMISSION IS PROHIBITED (copy paste is not allowed)

Get in touch with me (Facebook)


INSTAGRAM

TWITTER


YouTube link (Do share it)




Comments

  1. i really get amazed to read this.Most of the people want this and you helped all of us.you can refer panseva for applying new pan card .Thanks a lot for sharing and take your valuable time to write and share your thoughts.I have feel that this blog is really have all those quality that qualify a blog to be a good one.Thanks a lot for sharing

    ReplyDelete

Post a comment

Populer Posts

Despacito Guitar Tabs/Lead Lesson in Hindi | Luis Fonsi | Daddy Yankee | Justin Bieber

O O JANE JANA GUITAR TABS SINGLE STRING AND MULTISTRING

Tum Hi Aana Guitar Tabs with intro, Chords and Backing Track by Fuxino | Jubin Nautiyal | Marjaavaan | FxMusic