Posts

Showing posts from March, 2019

VAASTE GUITAR TABS,CHORDS with Backing Track by FUXiNO | FX-MUSIC

Image
WATCH MY VIDEO FOR BETTER UNDERSTANDING...

Chord Used - Capo on 5th Fret C,G,Am,F

STRUMMING - D-UDU-D-UDU-DD - (DU)*  Last (DU)* Stroke is filler
Backing Track is Available Below of This Post (Scroll Down)
TABS
SYMBOLS (/) Slide Down (\) Slide Up   (h) Hammer On   (p) Pull Off   (x) Muted

INTRO E|------------------------------------- B|--\6--6--6--6---6--6--6---6--6-- G|------------------------------------ D|------------------------------------- A|------------------------------------ E|------------------------------------

E|--------------------------------------- B|---6\8--8--8--8---8--8--8---8--8-- G|--------------------------------------- D|--------------------------------------- A|--------------------------------------- E|--------------------------------------- IT TAKES A-LOT OF TIME AND EFFORTS TO MAKE VIDEOS,BACKING TRACK AND THESE WRITTEN NOTES, SO IF YOU WANT TO ENCOURAGE ME YOU CAN BY DONATING ANYTHING (CLICK ON THIS PAYTM ICON) Donate with


E|---------------------------------------…

Happy Birthday Guitar Tabs/Lead On Single String for Beginners | Written Notes | FX MUSIC

Image
E|---1st String------------------------
B|---2nd String-----------------------
G|---3rd String----------------------
D|---4th String----------------------
A|---5th String----------------------
E|---6th String----------------------

0 = Open String



PART 1

E|--0--0--2--0--5--4----
B|-------------------------
G|--------------------------
D|-------------------------
A|-------------------------
E|-------------------------


 PART 2

E|--0--0--2--0--7--5--
B|----------------------
G|----------------------
D|----------------------
A|----------------------
E|-----------------------


PART 3

E|--0--0--12-9--5--4--2-
B|-------------------------
G|-------------------------
D|-------------------------
A|------------------------
E|------------------------


PART 4
E|--10-10-9--5--7--5---
B|-------------------------
G|--------------------------
D|-------------------------
A|--------------------------
E|-------------------------


Please Learn Part by Part and Repeat Above Structure according to your need.




i…

Duniya - Lukka Chuppi Guitar Tabs by FUXiNO | Akhil | FX - MUSIC

Image
E|-----------------------------------------------
B|--11-10-11-10-11------------------10---------------------10-
G|-------------------------10-10-10-12----12-12-10-12----
D|-----------------------------------------------
A|-----------------------------------------------
E|--------------------------------------------

E|--------------------------------------------
B|--11-10-11-10-11-------------10-10h/p11-10-------
G|------------------------10-10-10----------------------12-12-
D|--------------------------------------------
A|--------------------------------------------
E|--------------------------------------------

E|-------------------------------------------------
B|--11-10-11-10-11----------------------------13-11-10-
G|----------------------10-10-10-10-12----------
D|-----------------------------------------
A|-----------------------------------------
E|-----------------------------------------

E|--------------------------------------------
B|--11-10-11-10-11---------------10-10h/p…

BiBA Marshmello Guitar Chords with Lyrics | Strumming | Pritam feat. Shirley Setia | instrumental

Image
COVER
TUTORIAL



Chords Used - Cm,A#,Fm,G# Tip - Try to Barr these chords for better sound and use barr Fm at 8th fret for original feel.
Progression - Cm>A#>Fm>G#

Or (if you are feeling difficulty then use a capo to make it simple)
Capo at  3rd Fret - Am,G,Dm,F Progression -Am>G>Dm>F

Strumming > D-UD-DD-UD                       
*Watch My Video for Complete Understanding
Strumming > D-UD-DD-UD--(DUDU)*       
*Last (DUDU) Muted Stroke is is filler

Chords With Lyrics Tip - In first line I have highlighted words with brackets to get proper timing to hit that perticular chord, don't get confused just grab your guitar and try to sing first line according to progression given below... and yeah you have got complete song i guess.

(Cm>A#>Fm>G#) Yeh Roohdari(Yaaaa).....(aaaannnnn) Tu(Jhi) se Ju(Di) hain (Meri)

Hit Chords At these words.....
Cm > Yaaaaa..... A#  > ....aannnnnnnn Fm > Jhi G# > Di

Cm > MeRi......
Ri.....(A#)>Fm>G#  (no vocal)
Repeat Same Chord…